  0
SECTION
  2
HEADER
  9
$ACADVER
  1
AC1015
  9
$INSBASE
 10
0.000000
 20
0.000000
 30
0.0
  9
$VIEWCTR
 10
7.531722
 20
4.5
  9
$VIEWSIZE
 40
9.0
  9
$SNAPMODE
 70
     0
  9
$SNAPUNIT
 10
1.0
 20
1.0
  9
$SNAPBASE
 10
0.0
 20
0.0
  9
$SNAPANG
 50
0.0
  9
$SNAPSTYLE
 70
     0
  9
$SNAPISOPAIR
 70
     0
  9
$GRIDMODE
 70
     0
  9
$GRIDUNIT
 10
0.0
 20
0.0
  9
$ORTHOMODE
 70
     0
  9
$REGENMODE
 70
     1
  9
$FILLMODE
 70
     1
  9
$QTEXTMODE
 70
     0
  9
$DRAGMODE
 70
     2
  9
$LTSCALE
  40
     1.000000
  9
$OSMODE
 70
     0
  9
$ATTMODE
 70
     1
  9
$TEXTSIZE
 40
0.2
  9
$TRACEWID
 40
0.05
  9
$TEXTSTYLE
  7
STANDARD
  9
$CELTYPE
  6
BYLAYER
  9
$CECOLOR
 62
   256
  9
$DIMSCALE
 40
1.0
  9
$DIMASZ
 40
0.18
  9
$DIMEXO
 40
0.0625
  9
$DIMDLI
 40
0.38
  9
$DIMRND
 40
0.0
  9
$DIMDLE
 40
0.0
  9
$DIMEXE
 40
0.18
  9
$DIMTP
 40
0.0
  9
$DIMTM
 40
0.0
  9
$DIMTXT
 40
0.18
  9
$DIMCEN
 40
0.09
  9
$DIMTSZ
 40
0.0
  9
$DIMADEC
 70
     0
  9
$DIMALTRND
 40
0.000000
  9
$DIMAZIN
 70
     0
  9
$DIMDSEP
 70
    46
  9
$DIMATFIT
 70
     3
  9
$DIMFRAC
 70
     0
  9
$DIMLDRBLK
  1

  9
$DIMLUNIT
 70
     2
  9
$DIMLWD
 70
   13
  9
$DIMLWE
 70
   13
  9
$DIMTMOVE
 70
     0
  9
$CELWEIGHT
370
    25
  9
$LWDISPLAY
290
    1
  9
$EXTNAMES
290
    1
  9
$DIMTOL
 70
     0
  9
$DIMLIM
 70
     0
  9
$DIMTIH
 70
     1
  9
$DIMTOH
 70
     1
  9
$DIMSE1
 70
     0
  9
$DIMSE2
 70
     0
  9
$DIMTAD
 70
     0
  9
$DIMZIN
 70
     0
  9
$DIMBLK
  1

  9
$LUNITS
 70
     2
  9
$LUPREC
 70
     4
  9
$AXISMODE
 70
     0
  9
$AXISUNIT
 10
0.0
 20
0.0
  9
$SKETCHINC
 40
0.1
  9
$FILLETRAD
 40
0.0
  9
$AUNITS
 70
     0
  9
$AUPREC
 70
     0
  9
$MENU
  1
ACAD
  9
$ELEVATION
 40
0.0
  9
$THICKNESS
 40
0.0
  9
$VIEWDIR
 10
0.0
 20
0.0
 30
1.0
  9
$LIMCHECK
 70
     0
  9
$BLIPMODE
 70
     1
  9
$CHAMFERA
 40
0.0
  9
$CHAMFERB
 40
0.0
  9
$FASTZOOM
 70
     1
  9
$SKPOLY
 70
     0
  9
$TDCREATE
 40
0000000.0000000000
  9
$TDUPDATE
 40
0000000.0000000000
  9
$TDINDWG
 40
0.0000000000
  9
$TDUSRTIMER
 40
0.0000000000
  9
$USRTIMER
 70
     1
  9
$ANGBASE
 50
0.0
  9
$ANGDIR
 70
     0
  9
$PDMODE
 70
     0
  9
$PDSIZE
 40
0.0
  9
$PLINEWID
 40
0.0
  9
$COORDS
 70
     0
  9
$USERI1
 70
     0
  9
$USERI2
 70
     0
  9
$USERI3
 70
     0
  9
$USERI4
 70
     0
  9
$USERI5
 70
     0
  9
$USERR1
 40
0.0
  9
$USERR2
 40
0.0
  9
$USERR3
 40
0.0
  9
$USERR4
 40
0.0
  9
$USERR5
 40
0.0
  9
$CLAYER
  8
M0
  9
$EXTMIN
 10
0.0
 20
0.0
  9
$EXTMAX
 10
420.0
 20
297.0
  9
$LIMMIN
 10
0.0
 20
0.0
  9
$LIMMAX
 10
420.0
 20
297.0
  9
$HANDSEED
  5
50F
  0
ENDSEC
  0
SECTION
  2
CLASSES
  0
CLASS
  1
DIMASSOC
  2
AcDbDimAssoc
  3
"AcDbDimAssoc|Product Desc:     AcDim ARX App For Dimension|Company:          Autodesk, Inc.|WEB Address:      www.autodesk.com"
 90
        0
280
     0
281
     0
  0
ENDSEC
  0
SECTION
  2
TABLES
  0
TABLE
  2
VPORT
  5
8
100
AcDbSymbolTable
 70
     2
  0
VPORT
  5
14
100
AcDbSymbolTableRecord
100
AcDbViewportTableRecord
  2
*ACTIVE
 70
     0
 10
0.0
 20
0.0
 11
1.0
 21
1.0
 12
484.0
 22
297.0
 13
0.0
 23
0.0
 14
1.0
 24
1.0
 15
0.0
 25
0.0
 16
0.0
 26
0.0
 36
1.0
 17
0.0
 27
0.0
 37
0.0
 40
594.0
 41
2.0
 42
50.0
 43
0.0
 44
0.0
 50
0.0
 51
0.0
 71
     0
 72
   100
 73
     1
 74
     1
 75
     0
 76
     0
 77
     0
 78
     0
  0
ENDTAB
  0
TABLE
  2
LTYPE
  5
5
100
AcDbSymbolTable
 70
     5
  0
LTYPE
  5
15
100
AcDbSymbolTableRecord
100
AcDbLinetypeTableRecord
  2
BYBLOCK
 70
     0
  3

 72
    65
 73
     0
 40
0.0
  0
LTYPE
  5
16
100
AcDbSymbolTableRecord
100
AcDbLinetypeTableRecord
  2
BYLAYER
 70
     0
  3

 72
    65
 73
     0
 40
0.0
  0
LTYPE
  5
17
100
AcDbSymbolTableRecord
100
AcDbLinetypeTableRecord
  2
CONTINUOUS
 70
    64
  3
Solid line
 72
    65
 73
     0
 40
0.0
  0
LTYPE
  5
18
100
AcDbSymbolTableRecord
100
AcDbLinetypeTableRecord
  2
DASHED
 70
    64
  3
__ __ __ __ __ __ __ __ __ __ __ __ __ __ __ __
 72
    65
 73
     2
 40
0.75
 49
0.5
 74
     0
 49
-0.25
 74
     0
  0
LTYPE
  5
19
100
AcDbSymbolTableRecord
100
AcDbLinetypeTableRecord
  2
DASHDOT
 70
    64
  3
__ . __ . __ . __ . __ . __ . __ . __ . __ . __
 72
    65
 73
     4
 40
1.0
 49
0.5
 74
     0
 49
-0.25
 74
     0
 49
0.0
 74
     0
 49
-0.25
 74
     0
  0
LTYPE
  5
1A
100
AcDbSymbolTableRecord
100
AcDbLinetypeTableRecord
  2
DIVIDE
 70
    64
  3
____ . . ____ . . ____ . . ____ . . ____ . . __
 72
    65
 73
     6
 40
1.25
 49
0.5
 74
     0
 49
-0.25
 74
     0
 49
0.0
 74
     0
 49
-0.25
 74
     0
 49
0.0
 74
     0
 49
-0.25
 74
     0
  0
LTYPE
  5
1B
100
AcDbSymbolTableRecord
100
AcDbLinetypeTableRecord
  2
DOT
 70
    64
  3
. . . . . . . . . . . . . . . . . . . . . . . .
 72
    65
 73
     2
 40
0.25
 49
0.0
 74
     0
 49
-0.25
 74
     0
  0
ENDTAB
  0
TABLE
  2
LAYER
  5
2
100
AcDbSymbolTable
 70
   102
  0
LAYER
  5
F
100
AcDbSymbolTableRecord
100
AcDbLayerTableRecord
  2
0
 70
     0
 62
     7
  6
CONTINUOUS
370
     -3
390
F
  0
LAYER
  5
1C
100
AcDbSymbolTableRecord
100
AcDbLayerTableRecord
  2
M0
 70
     0
 62
     3
  6
CONTINUOUS
370
     -3
390
F
  0
LAYER
  5
1D
100
AcDbSymbolTableRecord
100
AcDbLayerTableRecord
  2
M69
 70
     0
 62
     7
  6
CONTINUOUS
370
     -3
390
F
  0
LAYER
  5
1E
100
AcDbSymbolTableRecord
100
AcDbLayerTableRecord
  2
M71
 70
     0
 62
     7
  6
CONTINUOUS
370
     -3
390
F
  0
LAYER
  5
1F
100
AcDbSymbolTableRecord
100
AcDbLayerTableRecord
  2
M73
 70
     0
 62
     7
  6
CONTINUOUS
370
     -3
390
F
  0
LAYER
  5
20
100
AcDbSymbolTableRecord
100
AcDbLayerTableRecord
  2
M74
 70
     0
 62
     7
  6
CONTINUOUS
370
     -3
390
F
  0
LAYER
  5
21
100
AcDbSymbolTableRecord
100
AcDbLayerTableRecord
  2
M75
 70
     0
 62
     7
  6
CONTINUOUS
370
     -3
390
F
  0
LAYER
  5
22
100
AcDbSymbolTableRecord
100
AcDbLayerTableRecord
  2
M79
 70
     0
 62
     7
  6
CONTINUOUS
370
     -3
390
F
  0
LAYER
  5
23
100
AcDbSymbolTableRecord
100
AcDbLayerTableRecord
  2
DD0
 70
     0
 62
     7
  6
CONTINUOUS
370
     -3
390
F
  0
ENDTAB
  0
TABLE
  2
STYLE
  5
3
100
AcDbSymbolTable
 70
     2
  0
STYLE
  5
10
100
AcDbSymbolTableRecord
100
AcDbTextStyleTableRecord
  2
STANDARD
 70
     0
 40
0.0
 41
1.0
 50
0.0
 71
     0
 42
0.2
  3
txt
  4
BIGFONT
  0
ENDTAB
  0
TABLE
  2
VIEW
  5
6
100
AcDbSymbolTable
 70
     0
  0
ENDTAB
  0
TABLE
  2
UCS
  5
7
100
AcDbSymbolTable
 70
     0
  0
ENDTAB
  0
TABLE
  2
APPID
  5
9
100
AcDbSymbolTable
 70
     1
  0
APPID
  5
11
100
AcDbSymbolTableRecord
100
AcDbRegAppTableRecord
  2
ACAD
 70
     0
  0
ENDTAB
  0
TABLE
  2
DIMSTYLE
  5
A
100
AcDbSymbolTable
 70
     2
100
AcDbDimStyleTable
 71
     1
  0
DIMSTYLE
105
5B
100
AcDbSymbolTableRecord
100
AcDbDimStyleTableRecord
  2
STANDARD
 70
     0
  3

  4

  5

  6
_OPEN
  7
_OPEN
 40
1.0
 41
3.0
 42
0.0
 43
8.0
 44
1.5
 45
0.0
 46
0.0
 47
0.0
 48
0.0
140
3.2
141
0.09
142
0.0
143
0.03937
144
1.0
145
0.0
146
1.0
147
1.0
148
0.000000
 71
     0
 72
     0
 73
     1
 74
     1
 75
     0
 76
     0
 77
     3
 78
     8
170
     0
171
     2
172
     0
173
     1
174
     0
175
     0
176
     0
177
     0
178
     0
270
     2
271
     2
272
     4
273
     2
274
     2
340
10
275
     0
278
    46
280
     0
281
     0
282
     0
283
     1
284
     0
285
     0
286
     0
287
     3
288
     0
371
   13
372
   13
  0
DIMSTYLE
105
5C
100
AcDbSymbolTableRecord
100
AcDbDimStyleTableRecord
  2
LEADSTYL
 70
     0
  3

  4

  5

  6
_OPEN
  7
_OPEN
 40
1.0
 41
3.0
 42
0.0625
 43
0.38
 44
0.18
 45
0.0
 46
0.0
 47
0.0
 48
0.0
140
3.2
141
0.09
142
0.0
143
25.4
144
1.0
145
0.0
146
1.0
147
1.0
 71
     0
 72
     0
 73
     1
 74
     1
 75
     0
 76
     0
 77
     0
 78
     0
170
     0
171
     2
172
     0
173
     1
174
     0
175
     0
176
     0
177
     0
178
     0
270
     2
271
     4
272
     4
273
     2
274
     2
340
10
275
     0
280
     0
281
     0
282
     0
283
     1
284
     0
285
     0
286
     0
287
     3
288
     0
  0
ENDTAB
  0
TABLE
  2
BLOCK_RECORD
  5
1
100
AcDbSymbolTable
 70
     6
  0
BLOCK_RECORD
  5
24
100
AcDbSymbolTableRecord
100
AcDbBlockTableRecord
  2
*MODEL_SPACE
  0
BLOCK_RECORD
  5
27
100
AcDbSymbolTableRecord
100
AcDbBlockTableRecord
  2
*PAPER_SPACE
  0
BLOCK_RECORD
  5
2A
100
AcDbSymbolTableRecord
100
AcDbBlockTableRecord
  2
_NONE
  0
BLOCK_RECORD
  5
2E
100
AcDbSymbolTableRecord
100
AcDbBlockTableRecord
  2
_OPEN
  0
BLOCK_RECORD
  5
34
100
AcDbSymbolTableRecord
100
AcDbBlockTableRecord
  2
_CLOSED
  0
BLOCK_RECORD
  5
3B
100
AcDbSymbolTableRecord
100
AcDbBlockTableRecord
  2
_ORIGIN
  0
BLOCK_RECORD
  5
40
100
AcDbSymbolTableRecord
100
AcDbBlockTableRecord
  2
_DOT
  0
BLOCK_RECORD
  5
48
100
AcDbSymbolTableRecord
100
AcDbBlockTableRecord
  2
_OBLIQUE
  0
ENDTAB
  0
ENDSEC
  0
SECTION
  2
BLOCKS
  0
BLOCK
  5
25
100
AcDbEntity
  8
0
100
AcDbBlockBegin
  2
*MODEL_SPACE
 70
     0
 10
0.0
 20
0.0
 30
0.0
  3
*MODEL_SPACE
  1

  0
ENDBLK
  5
26
100
AcDbEntity
  8
0
100
AcDbBlockEnd
  0
BLOCK
  5
28
100
AcDbEntity
 67
     1
  8
0
100
AcDbBlockBegin
  2
*PAPER_SPACE
 70
     0
 10
0.0
 20
0.0
 30
0.0
  3
*PAPER_SPACE
  1

  0
ENDBLK
  5
29
100
AcDbEntity
 67
     1
  8
0
100
AcDbBlockEnd
  0
BLOCK
  5
2B
100
AcDbEntity
  8
0
100
AcDbBlockBegin
  2
_NONE
 70
     0
 10
0.0
 20
0.0
  0
CIRCLE
  5
2C
100
AcDbEntity
  8
0
 62
     0
370
13
100
AcDbCircle
 10
0.0
 20
0.0
 40
0.25
  0
ENDBLK
  5
2D
100
AcDbEntity
  8
0
100
AcDbBlockEnd
  0
BLOCK
  5
2F
100
AcDbEntity
  8
0
100
AcDbBlockBegin
  2
_OPEN
 70
     0
 10
0.0
 20
0.0
  0
LINE
  5
30
100
AcDbEntity
  8
0
 62
     0
370
13
100
AcDbLine
 10
-0.965926
 20
0.258819
 11
0.0
 21
0.0
  0
LINE
  5
31
100
AcDbEntity
  8
0
 62
     0
370
13
100
AcDbLine
 10
0.0
 20
0.0
 11
-0.965926
 21
-0.258819
  0
LINE
  5
32
100
AcDbEntity
  8
0
 62
     0
370
13
100
AcDbLine
 10
0.0
 20
0.0
 11
-1.0
 21
0.0
  0
ENDBLK
  5
33
100
AcDbEntity
  8
0
100
AcDbBlockEnd
  0
BLOCK
  5
35
100
AcDbEntity
  8
0
100
AcDbBlockBegin
  2
_CLOSED
 70
     0
 10
0.0
 20
0.0
  0
LINE
  5
36
100
AcDbEntity
  8
0
 62
     0
370
13
100
AcDbLine
 10
-0.965926
 20
0.258819
 11
0.0
 21
0.0
  0
LINE
  5
37
100
AcDbEntity
  8
0
 62
     0
370
13
100
AcDbLine
 10
0.0
 20
0.0
 11
-0.965926
 21
-0.258819
  0
LINE
  5
38
100
AcDbEntity
  8
0
 62
     0
370
13
100
AcDbLine
 10
-0.965926
 20
0.258819
 11
-0.965926
 21
-0.258819
  0
LINE
  5
39
100
AcDbEntity
  8
0
 62
     0
370
13
100
AcDbLine
 10
0.0
 20
0.0
 11
-1.0
 21
0.0
  0
ENDBLK
  5
3A
100
AcDbEntity
  8
0
100
AcDbBlockEnd
  0
BLOCK
  5
3C
100
AcDbEntity
  8
0
100
AcDbBlockBegin
  2
_ORIGIN
 70
     0
 10
0.0
 20
0.0
  0
CIRCLE
  5
3D
100
AcDbEntity
  8
0
 62
     0
370
13
100
AcDbCircle
 10
0.0
 20
0.0
 40
0.5
  0
LINE
  5
3E
100
AcDbEntity
  8
0
 62
     0
370
13
100
AcDbLine
 10
0.0
 20
0.0
 11
-1.0
 21
0.0
  0
ENDBLK
  5
3F
100
AcDbEntity
  8
0
100
AcDbBlockEnd
  0
BLOCK
  5
41
100
AcDbEntity
  8
0
100
AcDbBlockBegin
  2
_DOT
 70
     0
 10
0.0
 20
0.0
  0
POLYLINE
  5
42
100
AcDbEntity
  8
0
 62
     0
100
AcDb2dPolyline
 66
     1
 70
     1
 40
0.5
 41
0.5
  0
VERTEX
  5
43
100
AcDbEntity
  8
0
 62
     0
100
AcDbVertex
100
AcDb2dVertex
 10
-0.25
 20
0.0
 42
1.0
  0
VERTEX
  5
44
100
AcDbEntity
  8
0
 62
     0
100
AcDbVertex
100
AcDb2dVertex
 10
0.25
 20
0.0
 42
1.0
  0
SEQEND
  5
45
100
AcDbEntity
  8
0
 62
     0
  0
LINE
  5
46
100
AcDbEntity
  8
0
 62
     0
370
13
100
AcDbLine
 10
-0.5
 20
0.0
 11
-1.0
 21
0.0
  0
ENDBLK
  5
47
100
AcDbEntity
  8
0
100
AcDbBlockEnd
  0
BLOCK
  5
49
100
AcDbEntity
  8
0
100
AcDbBlockBegin
  2
_OBLIQUE
 70
     0
 10
0.0
 20
0.0
  0
LINE
  5
4A
100
AcDbEntity
  8
0
 62
     0
370
13
100
AcDbLine
 10
-0.353553
 20
-0.353553
 11
0.353553
 21
0.353553
  0
ENDBLK
  5
4B
100
AcDbEntity
  8
0
100
AcDbBlockEnd
  0
ENDSEC
  0
SECTION
  2
ENTITIES
  0
LEADER
  5
4C
102
{ACAD_XDICTIONARY
360
4D
102
}
102
{ACAD_REACTORS
330
4E
102
}
330
1F
100
AcDbEntity
  8
DD0
100
AcDbLeader
  3
LEADSTYL
 76
     2
 10
191.521179
 20
70.263451
 10
189.793564
 20
42.782452
 77
     7
1001
ACAD
1000
DSTYLE
1002
{
1070
   341
1005
2E
1070
   372
1070
   13
1070
   371
1070
   13
1002
}
  0
LEADER
  5
50
102
{ACAD_XDICTIONARY
360
51
102
}
102
{ACAD_REACTORS
330
52
102
}
330
1F
100
AcDbEntity
  8
DD0
100
AcDbLeader
  3
LEADSTYL
 76
     2
 10
196.674149
 20
67.105965
 10
190.65239
 20
42.256275
 77
     7
1001
ACAD
1000
DSTYLE
1002
{
1070
   341
1005
2E
1070
   372
1070
   13
1070
   371
1070
   13
1002
}
  0
LEADER
  5
54
102
{ACAD_XDICTIONARY
360
55
102
}
102
{ACAD_REACTORS
330
56
102
}
330
1F
100
AcDbEntity
  8
DD0
100
AcDbLeader
  3
LEADSTYL
 76
     3
 10
202.305923
 20
63.94746
 10
191.591019
 20
41.72982
 10
128.487
 20
41.72982
340
58
 77
     7
1001
ACAD
1000
DSTYLE
1002
{
1070
   341
1005
2E
1070
   372
1070
   13
1070
   371
1070
   13
1002
}
  0
TEXT
  5
58
100
AcDbEntity
  8
DD0
100
AcDbText
 10
132.053665
 20
42.72982
 40
3.2
  1
必ず色を合わせて接続してください
 41
0.833333
  7
STANDARD
100
AcDbText
  0
TEXT
  5
59
100
AcDbEntity
  8
DD0
100
AcDbText
 10
183.054989
 20
44.649818
 40
1.92
  1
※
 41
0.833333
  7
STANDARD
100
AcDbText
  0
TEXT
  5
5A
100
AcDbEntity
  8
DD0
100
AcDbText
 10
185.17366
 20
42.72982
 40
3.2
  1
　
 41
0.833333
  7
STANDARD
100
AcDbText
  0
LINE
  5
5D
100
AcDbEntity
  8
M0
  6
CONTINUOUS
370
13
 62
     7
100
AcDbLine
 10
102.724249
 20
190.89328
 11
106.488137
 21
190.89328
  0
LINE
  5
5E
100
AcDbEntity
  8
M0
  6
CONTINUOUS
370
13
 62
     7
100
AcDbLine
 10
102.724249
 20
190.89328
 11
102.724249
 21
179.513057
  0
LINE
  5
5F
100
AcDbEntity
  8
M0
  6
CONTINUOUS
370
13
 62
     7
100
AcDbLine
 10
102.724249
 20
179.513057
 11
106.488137
 21
179.513057
  0
LINE
  5
60
100
AcDbEntity
  8
M0
  6
CONTINUOUS
370
13
 62
     7
100
AcDbLine
 10
106.488137
 20
190.89328
 11
106.488137
 21
179.513057
  0
CIRCLE
  5
61
100
AcDbEntity
  8
M0
  6
CONTINUOUS
370
13
100
AcDbCircle
 10
104.606193
 20
189.696085
 40
0.65697
  0
CIRCLE
  5
62
100
AcDbEntity
  8
M0
  6
CONTINUOUS
370
13
100
AcDbCircle
 10
104.606193
 20
185.192296
 40
0.65697
  0
CIRCLE
  5
63
100
AcDbEntity
  8
M0
  6
CONTINUOUS
370
13
100
AcDbCircle
 10
104.606193
 20
180.688507
 40
0.65697
  0
CIRCLE
  5
64
100
AcDbEntity
  8
M0
  6
CONTINUOUS
370
13
100
AcDbCircle
 10
104.606193
 20
187.44419
 40
0.65697
  0
CIRCLE
  5
65
100
AcDbEntity
  8
M0
  6
CONTINUOUS
370
13
100
AcDbCircle
 10
104.606193
 20
182.940401
 40
0.65697
  0
TEXT
  5
66
100
AcDbEntity
  8
M0
100
AcDbText
 10
106.488134
 20
190.223723
 40
2.688492
  1
ＣＮ３０３
 50
270.000001
 41
0.643939
  7
STANDARD
100
AcDbText
  0
TEXT
  5
67
100
AcDbEntity
  8
M0
100
AcDbText
 10
148.174925
 20
154.553711
 40
2.912533
  1
ＳＷ２
 50
270.000001
 41
0.643939
  7
STANDARD
100
AcDbText
  0
TEXT
  5
68
100
AcDbEntity
  8
M0
100
AcDbText
 10
148.174925
 20
166.495697
 40
2.912533
  1
ＳＷ１
 50
270.000001
 41
0.643939
  7
STANDARD
100
AcDbText
  0
TEXT
  5
69
100
AcDbEntity
  8
M0
100
AcDbText
 10
157.777145
 20
170.361563
 40
2.912533
  1
ＬＥＤ
 50
270.000001
 41
0.643939
  7
STANDARD
100
AcDbText
  0
LINE
  5
6A
100
AcDbEntity
  8
M0
  6
CONTINUOUS
370
13
100
AcDbLine
 10
75.991058
 20
179.700189
 11
78.244464
 21
181.953595
  0
LINE
  5
6B
100
AcDbEntity
  8
M0
  6
CONTINUOUS
370
13
100
AcDbLine
 10
83.967923
 20
186.324066
 11
83.967923
 21
175.524918
  0
LINE
  5
6C
100
AcDbEntity
  8
M0
  6
CONTINUOUS
370
13
100
AcDbLine
 10
78.3935
 20
179.700189
 11
80.646906
 21
181.953595
  0
LINE
  5
6D
100
AcDbEntity
  8
M0
  6
CONTINUOUS
370
13
100
AcDbLine
 10
75.343611
 20
180.924492
 11
83.967923
 21
180.924492
  0
LINE
  5
6E
100
AcDbEntity
  8
M0
  6
CONTINUOUS
370
13
100
AcDbLine
 10
80.795942
 20
179.700189
 11
83.049347
 21
181.953595
  0
LINE
  5
6F
100
AcDbEntity
  8
M0
  6
CONTINUOUS
370
13
100
AcDbLine
 10
79.594721
 20
179.700189
 11
81.848127
 21
181.953595
  0
LINE
  5
70
100
AcDbEntity
  8
M0
  6
CONTINUOUS
370
13
100
AcDbLine
 10
77.192279
 20
179.700189
 11
79.445685
 21
181.953595
  0
LINE
  5
71
100
AcDbEntity
  8
M0
  6
CONTINUOUS
370
13
100
AcDbLine
 10
83.967923
 20
175.524918
 11
103.949224
 21
175.524918
  0
LINE
  5
72
100
AcDbEntity
  8
M0
  6
CONTINUOUS
370
13
100
AcDbLine
 10
92.339247
 20
176.65162
 11
90.085842
 21
174.398215
  0
LINE
  5
73
100
AcDbEntity
  8
M0
  6
CONTINUOUS
370
13
100
AcDbLine
 10
90.347158
 20
187.548369
 11
88.093752
 21
185.294963
  0
LINE
  5
74
100
AcDbEntity
  8
M0
  6
CONTINUOUS
370
13
100
AcDbLine
 10
93.950821
 20
187.548369
 11
91.697415
 21
185.294963
  0
LINE
  5
75
100
AcDbEntity
  8
M0
  6
CONTINUOUS
370
13
100
AcDbLine
 10
91.548379
 20
187.548369
 11
89.294973
 21
185.294963
  0
LINE
  5
76
100
AcDbEntity
  8
M0
  6
CONTINUOUS
370
13
100
AcDbLine
 10
92.7496
 20
187.548369
 11
90.496194
 21
185.294963
  0
LINE
  5
77
100
AcDbEntity
  8
M0
  6
CONTINUOUS
370
13
100
AcDbLine
 10
96.508035
 20
186.324066
 11
83.967923
 21
186.324066
  0
LINE
  5
78
100
AcDbEntity
  8
M0
  6
CONTINUOUS
370
13
100
AcDbLine
 10
97.165005
 20
186.981035
 11
97.165005
 21
189.039115
  0
LINE
  5
79
100
AcDbEntity
  8
M0
  6
CONTINUOUS
370
13
100
AcDbLine
 10
97.165005
 20
185.667096
 11
97.165005
 21
183.597371
  0
LINE
  5
7A
100
AcDbEntity
  8
M0
  6
CONTINUOUS
370
13
100
AcDbLine
 10
103.949224
 20
185.192296
 11
97.821974
 21
185.192296
  0
LINE
  5
7B
100
AcDbEntity
  8
M0
  6
CONTINUOUS
370
13
100
AcDbLine
 10
103.949224
 20
187.44419
 11
97.821974
 21
187.44419
  0
LINE
  5
7C
100
AcDbEntity
  8
M0
  6
CONTINUOUS
370
13
100
AcDbLine
 10
103.949224
 20
189.696085
 11
97.821974
 21
189.696085
  0
LINE
  5
7D
100
AcDbEntity
  8
M0
  6
CONTINUOUS
370
13
100
AcDbLine
 10
103.949224
 20
182.940401
 11
97.821974
 21
182.940401
  0
CIRCLE
  5
7E
100
AcDbEntity
  8
M0
  6
CONTINUOUS
370
13
100
AcDbCircle
 10
72.715733
 20
180.924492
 40
2.627878
  0
ARC
  5
7F
100
AcDbEntity
  8
M0
  6
CONTINUOUS
370
13
100
AcDbCircle
 10
97.821974
 20
183.597371
 40
0.65697
100
AcDbArc
 50
180.0
 51
270.0
  0
ARC
  5
80
100
AcDbEntity
  8
M0
  6
CONTINUOUS
370
13
100
AcDbCircle
 10
97.821974
 20
185.849265
 40
0.65697
100
AcDbArc
 50
180.0
 51
270.0
  0
ARC
  5
81
100
AcDbEntity
  8
M0
  6
CONTINUOUS
370
13
100
AcDbCircle
 10
97.821974
 20
189.039115
 40
0.65697
100
AcDbArc
 50
90.0
 51
180.0
  0
ARC
  5
82
100
AcDbEntity
  8
M0
  6
CONTINUOUS
370
13
100
AcDbCircle
 10
97.821974
 20
186.787221
 40
0.65697
100
AcDbArc
 50
90.0
 51
180.0
  0
ARC
  5
83
100
AcDbEntity
  8
M0
  6
CONTINUOUS
370
13
100
AcDbCircle
 10
96.508035
 20
186.981035
 40
0.65697
100
AcDbArc
 50
270.0
 51
360.0
  0
ARC
  5
84
100
AcDbEntity
  8
M0
  6
CONTINUOUS
370
13
100
AcDbCircle
 10
96.508035
 20
185.667096
 40
0.65697
100
AcDbArc
 50
0.0
 51
90.0
  0
TEXT
  5
85
100
AcDbEntity
  8
M0
100
AcDbText
 10
31.657201
 20
179.091425
 40
3.666125
  1
給湯循環ポンプ（２系）
 41
0.694444
  7
STANDARD
100
AcDbText
  0
CIRCLE
  5
86
100
AcDbEntity
  8
M0
  6
CONTINUOUS
370
13
100
AcDbCircle
 10
180.522433
 20
156.86939
 40
0.65697
  0
CIRCLE
  5
87
100
AcDbEntity
  8
M0
  6
CONTINUOUS
370
13
100
AcDbCircle
 10
182.744761
 20
156.86939
 40
0.65697
  0
CIRCLE
  5
88
100
AcDbEntity
  8
M0
  6
CONTINUOUS
370
13
100
AcDbCircle
 10
180.522433
 20
160.562838
 40
0.65697
  0
CIRCLE
  5
89
100
AcDbEntity
  8
M0
  6
CONTINUOUS
370
13
100
AcDbCircle
 10
182.744761
 20
160.562838
 40
0.65697
  0
CIRCLE
  5
8A
100
AcDbEntity
  8
M0
  6
CONTINUOUS
370
13
100
AcDbCircle
 10
180.522433
 20
178.692792
 40
0.65697
  0
CIRCLE
  5
8B
100
AcDbEntity
  8
M0
  6
CONTINUOUS
370
13
100
AcDbCircle
 10
182.744761
 20
178.692792
 40
0.65697
  0
CIRCLE
  5
8C
100
AcDbEntity
  8
M0
  6
CONTINUOUS
370
13
100
AcDbCircle
 10
180.522433
 20
174.999344
 40
0.65697
  0
CIRCLE
  5
8D
100
AcDbEntity
  8
M0
  6
CONTINUOUS
370
13
100
AcDbCircle
 10
182.744761
 20
174.999344
 40
0.65697
  0
CIRCLE
  5
8E
100
AcDbEntity
  8
M0
  6
CONTINUOUS
370
13
100
AcDbCircle
 10
180.522433
 20
186.079688
 40
0.65697
  0
CIRCLE
  5
8F
100
AcDbEntity
  8
M0
  6
CONTINUOUS
370
13
100
AcDbCircle
 10
182.744761
 20
186.079688
 40
0.65697
  0
TEXT
  5
90
100
AcDbEntity
  8
M0
100
AcDbText
 10
195.538714
 20
162.24853
 40
3.666125
  1
給湯温度センサ１（１系）
 41
0.694444
  7
STANDARD
100
AcDbText
  0
TEXT
  5
91
100
AcDbEntity
  8
M0
100
AcDbText
 10
195.538713
 20
180.378485
 40
3.666125
  1
給湯温度センサ３（合流）
 41
0.694444
  7
STANDARD
100
AcDbText
  0
TEXT
  5
92
100
AcDbEntity
  8
M0
100
AcDbText
 10
195.538713
 20
172.991587
 40
3.666125
  1
給湯温度センサ４（高温）
 41
0.694444
  7
STANDARD
100
AcDbText
  0
TEXT
  5
93
100
AcDbEntity
  8
M0
100
AcDbText
 10
195.538713
 20
165.941977
 40
3.666125
  1
給湯温度センサ２（２系）
 41
0.694444
  7
STANDARD
100
AcDbText
  0
TEXT
  5
94
100
AcDbEntity
  8
M0
100
AcDbText
 10
176.268584
 20
157.012993
 40
2.688492
  1
ＣＮ１１
 50
-90.000003
 41
0.643939
  7
STANDARD
100
AcDbText
  0
TEXT
  5
95
100
AcDbEntity
  8
M0
100
AcDbText
 10
176.268583
 20
188.070017
 40
2.688492
  1
ＣＮ１２
 50
-90.000003
 41
0.643939
  7
STANDARD
100
AcDbText
  0
TEXT
  5
96
100
AcDbEntity
  8
M0
100
AcDbText
 10
195.538714
 20
151.168185
 40
3.666125
  1
水温度
 41
0.694444
  7
STANDARD
100
AcDbText
  0
TEXT
  5
97
100
AcDbEntity
  8
M0
100
AcDbText
 10
195.538714
 20
154.861634
 40
3.666125
  1
タンクセンサ１（最頂部）
 41
0.694444
  7
STANDARD
100
AcDbText
  0
LINE
  5
98
100
AcDbEntity
  8
M0
  6
CONTINUOUS
370
13
 62
     7
100
AcDbLine
 10
178.957075
 20
135.92487
 11
184.310119
 21
135.92487
  0
LINE
  5
99
100
AcDbEntity
  8
M0
  6
CONTINUOUS
370
13
 62
     7
100
AcDbLine
 10
178.957075
 20
170.427015
 11
178.957075
 21
135.92487
  0
LINE
  5
9A
100
AcDbEntity
  8
M0
  6
CONTINUOUS
370
13
 62
     7
100
AcDbLine
 10
184.310119
 20
135.92487
 11
184.310119
 21
170.427015
  0
LINE
  5
9B
100
AcDbEntity
  8
M0
  6
CONTINUOUS
370
13
 62
     7
100
AcDbLine
 10
184.310119
 20
170.427015
 11
178.957075
 21
170.427015
  0
LINE
  5
9C
100
AcDbEntity
  8
M0
  6
CONTINUOUS
370
13
100
AcDbLine
 10
189.944378
 20
137.74071
 11
189.177927
 21
139.068241
  0
LINE
  5
9D
100
AcDbEntity
  8
M0
  6
CONTINUOUS
370
13
100
AcDbLine
 10
188.411477
 20
137.74071
 11
187.645027
 21
139.068241
  0
LINE
  5
9E
100
AcDbEntity
  8
M0
  6
CONTINUOUS
370
13
100
AcDbLine
 10
194.159939
 20
137.13068
 11
194.159939
 21
138.404475
  0
LINE
  5
9F
100
AcDbEntity
  8
M0
  6
CONTINUOUS
370
13
100
AcDbLine
 10
191.477278
 20
137.74071
 11
190.710828
 21
139.068241
  0
LINE
  5
A0
100
AcDbEntity
  8
M0
  6
CONTINUOUS
370
13
100
AcDbLine
 10
189.944378
 20
137.74071
 11
190.710828
 21
139.068241
  0
LINE
  5
A1
100
AcDbEntity
  8
M0
  6
CONTINUOUS
370
13
100
AcDbLine
 10
187.261802
 20
138.404475
 11
187.645027
 21
139.068241
  0
LINE
  5
A2
100
AcDbEntity
  8
M0
  6
CONTINUOUS
370
13
100
AcDbLine
 10
181.793908
 20
137.13068
 11
194.159939
 21
137.13068
  0
LINE
  5
A3
100
AcDbEntity
  8
M0
  6
CONTINUOUS
370
13
100
AcDbLine
 10
180.986983
 20
137.937605
 11
181.793908
 21
137.13068
  0
LINE
  5
A4
100
AcDbEntity
  8
M0
  6
CONTINUOUS
370
13
100
AcDbLine
 10
188.411477
 20
137.74071
 11
189.177927
 21
139.068241
  0
LINE
  5
A5
100
AcDbEntity
  8
M0
  6
CONTINUOUS
370
13
100
AcDbLine
 10
191.860503
 20
138.404475
 11
194.159939
 21
138.404475
  0
LINE
  5
A6
100
AcDbEntity
  8
M0
  6
CONTINUOUS
370
13
100
AcDbLine
 10
183.401735
 20
138.402151
 11
187.261802
 21
138.404475
  0
LINE
  5
A7
100
AcDbEntity
  8
M0
  6
DIVIDE
370
13
100
AcDbLine
 10
191.860589
 20
139.324233
 11
187.261802
 21
139.324233
  0
LINE
  5
A8
100
AcDbEntity
  8
M0
  6
CONTINUOUS
370
13
100
AcDbLine
 10
191.860503
 20
138.404475
 11
191.477278
 21
137.74071
  0
LINE
  5
A9
100
AcDbEntity
  8
M0
  6
DIVIDE
370
13
100
AcDbLine
 10
187.261802
 20
137.484718
 11
191.860589
 21
137.484718
  0
CIRCLE
  5
AA
100
AcDbEntity
  8
M0
  6
CONTINUOUS
370
13
100
AcDbCircle
 10
180.522433
 20
138.402151
 40
0.65697
  0
CIRCLE
  5
AB
100
AcDbEntity
  8
M0
  6
CONTINUOUS
370
13
100
AcDbCircle
 10
182.744761
 20
138.402151
 40
0.65697
  0
ARC
  5
AC
100
AcDbEntity
  8
M0
  6
DIVIDE
370
13
100
AcDbCircle
 10
191.860589
 20
138.404475
 40
0.919757
100
AcDbArc
 50
270.0
 51
450.0
  0
ARC
  5
AD
100
AcDbEntity
  8
M0
  6
DIVIDE
370
13
100
AcDbCircle
 10
187.261802
 20
138.404475
 40
0.919757
100
AcDbArc
 50
90.0
 51
270.0
  0
LINE
  5
AE
100
AcDbEntity
  8
M0
  6
CONTINUOUS
370
13
100
AcDbLine
 10
181.793908
 20
140.824128
 11
194.159939
 21
140.824128
  0
LINE
  5
AF
100
AcDbEntity
  8
M0
  6
CONTINUOUS
370
13
100
AcDbLine
 10
180.986983
 20
141.631053
 11
181.793908
 21
140.824128
  0
LINE
  5
B0
100
AcDbEntity
  8
M0
  6
CONTINUOUS
370
13
100
AcDbLine
 10
187.261802
 20
142.097923
 11
187.645027
 21
142.761689
  0
LINE
  5
B1
100
AcDbEntity
  8
M0
  6
DIVIDE
370
13
100
AcDbLine
 10
187.261802
 20
141.178166
 11
191.860589
 21
141.178166
  0
LINE
  5
B2
100
AcDbEntity
  8
M0
  6
CONTINUOUS
370
13
100
AcDbLine
 10
191.860503
 20
142.097923
 11
194.159939
 21
142.097923
  0
LINE
  5
B3
100
AcDbEntity
  8
M0
  6
CONTINUOUS
370
13
100
AcDbLine
 10
194.159939
 20
140.824128
 11
194.159939
 21
142.097923
  0
LINE
  5
B4
100
AcDbEntity
  8
M0
  6
DIVIDE
370
13
100
AcDbLine
 10
191.860589
 20
143.017681
 11
187.261802
 21
143.017681
  0
LINE
  5
B5
100
AcDbEntity
  8
M0
  6
CONTINUOUS
370
13
100
AcDbLine
 10
189.944378
 20
141.434158
 11
189.177927
 21
142.761689
  0
LINE
  5
B6
100
AcDbEntity
  8
M0
  6
CONTINUOUS
370
13
100
AcDbLine
 10
188.411477
 20
141.434158
 11
187.645027
 21
142.761689
  0
LINE
  5
B7
100
AcDbEntity
  8
M0
  6
CONTINUOUS
370
13
100
AcDbLine
 10
183.401735
 20
142.095599
 11
187.261802
 21
142.097923
  0
LINE
  5
B8
100
AcDbEntity
  8
M0
  6
CONTINUOUS
370
13
100
AcDbLine
 10
189.944378
 20
141.434158
 11
190.710828
 21
142.761689
  0
LINE
  5
B9
100
AcDbEntity
  8
M0
  6
CONTINUOUS
370
13
100
AcDbLine
 10
191.860503
 20
142.097923
 11
191.477278
 21
141.434158
  0
LINE
  5
BA
100
AcDbEntity
  8
M0
  6
CONTINUOUS
370
13
100
AcDbLine
 10
188.411477
 20
141.434158
 11
189.177927
 21
142.761689
  0
LINE
  5
BB
100
AcDbEntity
  8
M0
  6
CONTINUOUS
370
13
100
AcDbLine
 10
191.477278
 20
141.434158
 11
190.710828
 21
142.761689
  0
CIRCLE
  5
BC
100
AcDbEntity
  8
M0
  6
CONTINUOUS
370
13
100
AcDbCircle
 10
180.522433
 20
142.095599
 40
0.65697
  0
CIRCLE
  5
BD
100
AcDbEntity
  8
M0
  6
CONTINUOUS
370
13
100
AcDbCircle
 10
182.744761
 20
142.095599
 40
0.65697
  0
ARC
  5
BE
100
AcDbEntity
  8
M0
  6
DIVIDE
370
13
100
AcDbCircle
 10
187.261802
 20
142.097923
 40
0.919757
100
AcDbArc
 50
90.0
 51
270.0
  0
ARC
  5
BF
100
AcDbEntity
  8
M0
  6
DIVIDE
370
13
100
AcDbCircle
 10
191.860589
 20
142.097923
 40
0.919757
100
AcDbArc
 50
270.0
 51
450.0
  0
LINE
  5
C0
100
AcDbEntity
  8
M0
  6
CONTINUOUS
370
13
100
AcDbLine
 10
189.944378
 20
145.127606
 11
189.177927
 21
146.455137
  0
LINE
  5
C1
100
AcDbEntity
  8
M0
  6
DIVIDE
370
13
100
AcDbLine
 10
191.860589
 20
146.711129
 11
187.261802
 21
146.711129
  0
LINE
  5
C2
100
AcDbEntity
  8
M0
  6
CONTINUOUS
370
13
100
AcDbLine
 10
194.159939
 20
144.517576
 11
194.159939
 21
145.791371
  0
LINE
  5
C3
100
AcDbEntity
  8
M0
  6
CONTINUOUS
370
13
100
AcDbLine
 10
183.401735
 20
145.789047
 11
187.261802
 21
145.791371
  0
LINE
  5
C4
100
AcDbEntity
  8
M0
  6
CONTINUOUS
370
13
100
AcDbLine
 10
188.411477
 20
145.127606
 11
187.645027
 21
146.455137
  0
LINE
  5
C5
100
AcDbEntity
  8
M0
  6
CONTINUOUS
370
13
100
AcDbLine
 10
191.860503
 20
145.791371
 11
191.477278
 21
145.127606
  0
LINE
  5
C6
100
AcDbEntity
  8
M0
  6
CONTINUOUS
370
13
100
AcDbLine
 10
181.793908
 20
144.517576
 11
194.159939
 21
144.517576
  0
LINE
  5
C7
100
AcDbEntity
  8
M0
  6
CONTINUOUS
370
13
100
AcDbLine
 10
187.261802
 20
145.791371
 11
187.645027
 21
146.455137
  0
LINE
  5
C8
100
AcDbEntity
  8
M0
  6
CONTINUOUS
370
13
100
AcDbLine
 10
191.477278
 20
145.127606
 11
190.710828
 21
146.455137
  0
LINE
  5
C9
100
AcDbEntity
  8
M0
  6
CONTINUOUS
370
13
100
AcDbLine
 10
189.944378
 20
145.127606
 11
190.710828
 21
146.455137
  0
LINE
  5
CA
100
AcDbEntity
  8
M0
  6
CONTINUOUS
370
13
100
AcDbLine
 10
191.860503
 20
145.791371
 11
194.159939
 21
145.791371
  0
LINE
  5
CB
100
AcDbEntity
  8
M0
  6
DIVIDE
370
13
100
AcDbLine
 10
187.261802
 20
144.871614
 11
191.860589
 21
144.871614
  0
LINE
  5
CC
100
AcDbEntity
  8
M0
  6
CONTINUOUS
370
13
100
AcDbLine
 10
180.986983
 20
145.324501
 11
181.793908
 21
144.517576
  0
LINE
  5
CD
100
AcDbEntity
  8
M0
  6
CONTINUOUS
370
13
100
AcDbLine
 10
188.411477
 20
145.127606
 11
189.177927
 21
146.455137
  0
CIRCLE
  5
CE
100
AcDbEntity
  8
M0
  6
CONTINUOUS
370
13
100
AcDbCircle
 10
182.744761
 20
145.789047
 40
0.65697
  0
CIRCLE
  5
CF
100
AcDbEntity
  8
M0
  6
CONTINUOUS
370
13
100
AcDbCircle
 10
180.522433
 20
145.789047
 40
0.65697
  0
ARC
  5
D0
100
AcDbEntity
  8
M0
  6
DIVIDE
370
13
100
AcDbCircle
 10
191.860589
 20
145.791371
 40
0.919757
100
AcDbArc
 50
270.0
 51
450.0
  0
ARC
  5
D1
100
AcDbEntity
  8
M0
  6
DIVIDE
370
13
100
AcDbCircle
 10
187.261802
 20
145.791371
 40
0.919757
100
AcDbArc
 50
90.0
 51
270.0
  0
LINE
  5
D2
100
AcDbEntity
  8
M0
  6
DIVIDE
370
13
100
AcDbLine
 10
187.261802
 20
148.565062
 11
191.860589
 21
148.565062
  0
LINE
  5
D3
100
AcDbEntity
  8
M0
  6
CONTINUOUS
370
13
100
AcDbLine
 10
180.986983
 20
149.017949
 11
181.793908
 21
148.211024
  0
LINE
  5
D4
100
AcDbEntity
  8
M0
  6
CONTINUOUS
370
13
100
AcDbLine
 10
188.411477
 20
148.821054
 11
189.177927
 21
150.148585
  0
LINE
  5
D5
100
AcDbEntity
  8
M0
  6
CONTINUOUS
370
13
100
AcDbLine
 10
187.261802
 20
149.484819
 11
187.645027
 21
150.148585
  0
LINE
  5
D6
100
AcDbEntity
  8
M0
  6
CONTINUOUS
370
13
100
AcDbLine
 10
181.793908
 20
148.211024
 11
194.159939
 21
148.211024
  0
LINE
  5
D7
100
AcDbEntity
  8
M0
  6
DIVIDE
370
13
100
AcDbLine
 10
191.860589
 20
150.404577
 11
187.261802
 21
150.404577
  0
LINE
  5
D8
100
AcDbEntity
  8
M0
  6
CONTINUOUS
370
13
100
AcDbLine
 10
191.860503
 20
149.484819
 11
191.477278
 21
148.821054
  0
LINE
  5
D9
100
AcDbEntity
  8
M0
  6
CONTINUOUS
370
13
100
AcDbLine
 10
191.860503
 20
149.484819
 11
194.159939
 21
149.484819
  0
LINE
  5
DA
100
AcDbEntity
  8
M0
  6
CONTINUOUS
370
13
100
AcDbLine
 10
183.401735
 20
149.482494
 11
187.261802
 21
149.484819
  0
LINE
  5
DB
100
AcDbEntity
  8
M0
  6
CONTINUOUS
370
13
100
AcDbLine
 10
189.944378
 20
148.821054
 11
190.710828
 21
150.148585
  0
LINE
  5
DC
100
AcDbEntity
  8
M0
  6
CONTINUOUS
370
13
100
AcDbLine
 10
194.159939
 20
148.211024
 11
194.159939
 21
149.484819
  0
LINE
  5
DD
100
AcDbEntity
  8
M0
  6
CONTINUOUS
370
13
100
AcDbLine
 10
191.477278
 20
148.821054
 11
190.710828
 21
150.148585
  0
LINE
  5
DE
100
AcDbEntity
  8
M0
  6
CONTINUOUS
370
13
100
AcDbLine
 10
189.944378
 20
148.821054
 11
189.177927
 21
150.148585
  0
LINE
  5
DF
100
AcDbEntity
  8
M0
  6
CONTINUOUS
370
13
100
AcDbLine
 10
188.411477
 20
148.821054
 11
187.645027
 21
150.148585
  0
CIRCLE
  5
E0
100
AcDbEntity
  8
M0
  6
CONTINUOUS
370
13
100
AcDbCircle
 10
180.522433
 20
149.482494
 40
0.65697
  0
CIRCLE
  5
E1
100
AcDbEntity
  8
M0
  6
CONTINUOUS
370
13
100
AcDbCircle
 10
182.744761
 20
149.482494
 40
0.65697
  0
ARC
  5
E2
100
AcDbEntity
  8
M0
  6
DIVIDE
370
13
100
AcDbCircle
 10
191.860589
 20
149.484819
 40
0.919757
100
AcDbArc
 50
270.0
 51
450.0
  0
ARC
  5
E3
100
AcDbEntity
  8
M0
  6
DIVIDE
370
13
100
AcDbCircle
 10
187.261802
 20
149.484819
 40
0.919757
100
AcDbArc
 50
90.0
 51
270.0
  0
LINE
  5
E4
100
AcDbEntity
  8
M0
  6
CONTINUOUS
370
13
100
AcDbLine
 10
189.944378
 20
152.514502
 11
189.177927
 21
153.842032
  0
LINE
  5
E5
100
AcDbEntity
  8
M0
  6
DIVIDE
370
13
100
AcDbLine
 10
187.261802
 20
152.25851
 11
191.860589
 21
152.25851
  0
LINE
  5
E6
100
AcDbEntity
  8
M0
  6
CONTINUOUS
370
13
100
AcDbLine
 10
183.401735
 20
153.175942
 11
187.261802
 21
153.178267
  0
LINE
  5
E7
100
AcDbEntity
  8
M0
  6
CONTINUOUS
370
13
100
AcDbLine
 10
188.411477
 20
152.514502
 11
187.645027
 21
153.842032
  0
LINE
  5
E8
100
AcDbEntity
  8
M0
  6
CONTINUOUS
370
13
100
AcDbLine
 10
189.944378
 20
152.514502
 11
190.710828
 21
153.842032
  0
LINE
  5
E9
100
AcDbEntity
  8
M0
  6
CONTINUOUS
370
13
100
AcDbLine
 10
194.159939
 20
151.904472
 11
194.159939
 21
153.178267
  0
LINE
  5
EA
100
AcDbEntity
  8
M0
  6
DIVIDE
370
13
100
AcDbLine
 10
191.860589
 20
154.098025
 11
187.261802
 21
154.098025
  0
LINE
  5
EB
100
AcDbEntity
  8
M0
  6
CONTINUOUS
370
13
100
AcDbLine
 10
180.986983
 20
152.711397
 11
181.793908
 21
151.904472
  0
LINE
  5
EC
100
AcDbEntity
  8
M0
  6
CONTINUOUS
370
13
100
AcDbLine
 10
191.477278
 20
152.514502
 11
190.710828
 21
153.842032
  0
LINE
  5
ED
100
AcDbEntity
  8
M0
  6
CONTINUOUS
370
13
100
AcDbLine
 10
188.411477
 20
152.514502
 11
189.177927
 21
153.842032
  0
LINE
  5
EE
100
AcDbEntity
  8
M0
  6
CONTINUOUS
370
13
100
AcDbLine
 10
191.860503
 20
153.178267
 11
194.159939
 21
153.178267
  0
LINE
  5
EF
100
AcDbEntity
  8
M0
  6
CONTINUOUS
370
13
100
AcDbLine
 10
191.860503
 20
153.178267
 11
191.477278
 21
152.514502
  0
LINE
  5
F0
100
AcDbEntity
  8
M0
  6
CONTINUOUS
370
13
100
AcDbLine
 10
187.261802
 20
153.178267
 11
187.645027
 21
153.842032
  0
LINE
  5
F1
100
AcDbEntity
  8
M0
  6
CONTINUOUS
370
13
100
AcDbLine
 10
181.793908
 20
151.904472
 11
194.159939
 21
151.904472
  0
LINE
  5
F2
100
AcDbEntity
  8
M0
  6
CONTINUOUS
370
13
100
AcDbLine
 10
180.986983
 20
156.404845
 11
181.793908
 21
155.59792
  0
LINE
  5
F3
100
AcDbEntity
  8
M0
  6
CONTINUOUS
370
13
100
AcDbLine
 10
181.793908
 20
155.59792
 11
194.159939
 21
155.59792
  0
LINE
  5
F4
100
AcDbEntity
  8
M0
  6
CONTINUOUS
370
13
100
AcDbLine
 10
183.401735
 20
156.86939
 11
187.261802
 21
156.871715
  0
LINE
  5
F5
100
AcDbEntity
  8
M0
  6
CONTINUOUS
370
13
100
AcDbLine
 10
191.860503
 20
156.871715
 11
194.159939
 21
156.871715
  0
LINE
  5
F6
100
AcDbEntity
  8
M0
  6
CONTINUOUS
370
13
100
AcDbLine
 10
191.860503
 20
156.871715
 11
191.477278
 21
156.20795
  0
LINE
  5
F7
100
AcDbEntity
  8
M0
  6
CONTINUOUS
370
13
100
AcDbLine
 10
191.477278
 20
156.20795
 11
190.710828
 21
157.53548
  0
LINE
  5
F8
100
AcDbEntity
  8
M0
  6
CONTINUOUS
370
13
100
AcDbLine
 10
188.411477
 20
156.20795
 11
189.177927
 21
157.53548
  0
LINE
  5
F9
100
AcDbEntity
  8
M0
  6
CONTINUOUS
370
13
100
AcDbLine
 10
188.411477
 20
156.20795
 11
187.645027
 21
157.53548
  0
LINE
  5
FA
100
AcDbEntity
  8
M0
  6
CONTINUOUS
370
13
100
AcDbLine
 10
189.944378
 20
156.20795
 11
190.710828
 21
157.53548
  0
LINE
  5
FB
100
AcDbEntity
  8
M0
  6
CONTINUOUS
370
13
100
AcDbLine
 10
189.944378
 20
156.20795
 11
189.177927
 21
157.53548
  0
LINE
  5
FC
100
AcDbEntity
  8
M0
  6
DIVIDE
370
13
100
AcDbLine
 10
191.860589
 20
157.791473
 11
187.261802
 21
157.791473
  0
LINE
  5
FD
100
AcDbEntity
  8
M0
  6
CONTINUOUS
370
13
100
AcDbLine
 10
187.261802
 20
156.871715
 11
187.645027
 21
157.53548
  0
LINE
  5
FE
100
AcDbEntity
  8
M0
  6
DIVIDE
370
13
100
AcDbLine
 10
187.261802
 20
155.951958
 11
191.860589
 21
155.951958
  0
LINE
  5
FF
100
AcDbEntity
  8
M0
  6
CONTINUOUS
370
13
100
AcDbLine
 10
194.159939
 20
155.59792
 11
194.159939
 21
156.871715
  0
CIRCLE
  5
100
100
AcDbEntity
  8
M0
  6
CONTINUOUS
370
13
100
AcDbCircle
 10
182.744761
 20
153.175942
 40
0.65697
  0
CIRCLE
  5
101
100
AcDbEntity
  8
M0
  6
CONTINUOUS
370
13
100
AcDbCircle
 10
180.522433
 20
153.175942
 40
0.65697
  0
ARC
  5
102
100
AcDbEntity
  8
M0
  6
DIVIDE
370
13
100
AcDbCircle
 10
191.860589
 20
153.178267
 40
0.919757
100
AcDbArc
 50
270.0
 51
450.0
  0
ARC
  5
103
100
AcDbEntity
  8
M0
  6
DIVIDE
370
13
100
AcDbCircle
 10
187.261802
 20
153.178267
 40
0.919757
100
AcDbArc
 50
90.0
 51
270.0
  0
ARC
  5
104
100
AcDbEntity
  8
M0
  6
DIVIDE
370
13
100
AcDbCircle
 10
191.860589
 20
156.871715
 40
0.919757
100
AcDbArc
 50
270.0
 51
450.0
  0
ARC
  5
105
100
AcDbEntity
  8
M0
  6
DIVIDE
370
13
100
AcDbCircle
 10
187.261802
 20
156.871715
 40
0.919757
100
AcDbArc
 50
90.0
 51
270.0
  0
LINE
  5
106
100
AcDbEntity
  8
M0
  6
DIVIDE
370
13
100
AcDbLine
 10
191.860589
 20
165.178368
 11
187.261802
 21
165.178368
  0
LINE
  5
107
100
AcDbEntity
  8
M0
  6
CONTINUOUS
370
13
100
AcDbLine
 10
181.793908
 20
162.984816
 11
194.159939
 21
162.984816
  0
LINE
  5
108
100
AcDbEntity
  8
M0
  6
CONTINUOUS
370
13
100
AcDbLine
 10
191.477278
 20
163.594846
 11
190.710828
 21
164.922376
  0
LINE
  5
109
100
AcDbEntity
  8
M0
  6
CONTINUOUS
370
13
100
AcDbLine
 10
189.944378
 20
163.594846
 11
189.177927
 21
164.922376
  0
LINE
  5
10A
100
AcDbEntity
  8
M0
  6
CONTINUOUS
370
13
100
AcDbLine
 10
183.401735
 20
164.256286
 11
187.261802
 21
164.258611
  0
LINE
  5
10B
100
AcDbEntity
  8
M0
  6
CONTINUOUS
370
13
100
AcDbLine
 10
180.986983
 20
163.791741
 11
181.793908
 21
162.984816
  0
LINE
  5
10C
100
AcDbEntity
  8
M0
  6
CONTINUOUS
370
13
100
AcDbLine
 10
191.860503
 20
164.258611
 11
191.477278
 21
163.594846
  0
LINE
  5
10D
100
AcDbEntity
  8
M0
  6
CONTINUOUS
370
13
100
AcDbLine
 10
187.261802
 20
164.258611
 11
187.645027
 21
164.922376
  0
LINE
  5
10E
100
AcDbEntity
  8
M0
  6
CONTINUOUS
370
13
100
AcDbLine
 10
188.411477
 20
163.594846
 11
189.177927
 21
164.922376
  0
LINE
  5
10F
100
AcDbEntity
  8
M0
  6
CONTINUOUS
370
13
100
AcDbLine
 10
194.159939
 20
162.984816
 11
194.159939
 21
164.258611
  0
LINE
  5
110
100
AcDbEntity
  8
M0
  6
CONTINUOUS
370
13
100
AcDbLine
 10
189.944378
 20
163.594846
 11
190.710828
 21
164.922376
  0
LINE
  5
111
100
AcDbEntity
  8
M0
  6
CONTINUOUS
370
13
100
AcDbLine
 10
188.411477
 20
163.594846
 11
187.645027
 21
164.922376
  0
LINE
  5
112
100
AcDbEntity
  8
M0
  6
DIVIDE
370
13
100
AcDbLine
 10
187.261802
 20
163.338854
 11
191.860589
 21
163.338854
  0
LINE
  5
113
100
AcDbEntity
  8
M0
  6
CONTINUOUS
370
13
100
AcDbLine
 10
191.860503
 20
164.258611
 11
194.159939
 21
164.258611
  0
CIRCLE
  5
114
100
AcDbEntity
  8
M0
  6
CONTINUOUS
370
13
100
AcDbCircle
 10
180.522433
 20
164.256286
 40
0.65697
  0
CIRCLE
  5
115
100
AcDbEntity
  8
M0
  6
CONTINUOUS
370
13
100
AcDbCircle
 10
182.744761
 20
164.256286
 40
0.65697
  0
ARC
  5
116
100
AcDbEntity
  8
M0
  6
DIVIDE
370
13
100
AcDbCircle
 10
187.261802
 20
164.258611
 40
0.919757
100
AcDbArc
 50
90.0
 51
270.0
  0
ARC
  5
117
100
AcDbEntity
  8
M0
  6
DIVIDE
370
13
100
AcDbCircle
 10
191.860589
 20
164.258611
 40
0.919757
100
AcDbArc
 50
270.0
 51
450.0
  0
LINE
  5
118
100
AcDbEntity
  8
M0
  6
CONTINUOUS
370
25
100
AcDbLine
 10
394.194122
 20
196.199754
 11
394.194122
 21
117.090622
  0
LINE
  5
119
100
AcDbEntity
  8
M0
  6
CONTINUOUS
370
13
100
AcDbLine
 10
69.734393
 20
108.783129
 11
69.734393
 21
125.026574
  0
LINE
  5
11A
100
AcDbEntity
  8
M0
  6
CONTINUOUS
370
13
100
AcDbLine
 10
79.392801
 20
70.263448
 11
79.392801
 21
121.47519
  0
LINE
  5
11B
100
AcDbEntity
  8
M0
  6
CONTINUOUS
370
13
100
AcDbLine
 10
84.932852
 20
67.105967
 11
84.932852
 21
117.923806
  0
LINE
  5
11C
100
AcDbEntity
  8
M0
  6
CONTINUOUS
370
13
100
AcDbLine
 10
97.165005
 20
160.178641
 11
97.165005
 21
158.108915
  0
LINE
  5
11D
100
AcDbEntity
  8
M0
  6
CONTINUOUS
370
13
100
AcDbLine
 10
103.949224
 20
159.70384
 11
97.821974
 21
159.70384
  0
LINE
  5
11E
100
AcDbEntity
  8
M0
  6
CONTINUOUS
370
13
100
AcDbLine
 10
92.339247
 20
170.541412
 11
90.085842
 21
168.288007
  0
LINE
  5
11F
100
AcDbEntity
  8
M0
  6
CONTINUOUS
370
13
100
AcDbLine
 10
93.950821
 20
162.059913
 11
91.697415
 21
159.806508
  0
LINE
  5
120
100
AcDbEntity
  8
M0
  6
CONTINUOUS
370
13
100
AcDbLine
 10
75.343611
 20
165.12516
 11
83.967923
 21
165.12516
  0
LINE
  5
121
100
AcDbEntity
  8
M0
  6
CONTINUOUS
370
13
100
AcDbLine
 10
80.795942
 20
163.900857
 11
83.049347
 21
166.154263
  0
LINE
  5
122
100
AcDbEntity
  8
M0
  6
CONTINUOUS
370
13
100
AcDbLine
 10
75.991058
 20
163.900857
 11
78.244464
 21
166.154263
  0
LINE
  5
123
100
AcDbEntity
  8
M0
  6
CONTINUOUS
370
13
100
AcDbLine
 10
92.7496
 20
162.059913
 11
90.496194
 21
159.806508
  0
LINE
  5
124
100
AcDbEntity
  8
M0
  6
CONTINUOUS
370
13
100
AcDbLine
 10
77.192279
 20
163.900857
 11
79.445685
 21
166.154263
  0
LINE
  5
125
100
AcDbEntity
  8
M0
  6
CONTINUOUS
370
13
100
AcDbLine
 10
97.165005
 20
161.49258
 11
97.165005
 21
163.55066
  0
LINE
  5
126
100
AcDbEntity
  8
M0
  6
CONTINUOUS
370
13
100
AcDbLine
 10
91.548379
 20
162.059913
 11
89.294973
 21
159.806508
  0
LINE
  5
127
100
AcDbEntity
  8
M0
  6
CONTINUOUS
370
13
100
AcDbLine
 10
103.949224
 20
161.955735
 11
97.821974
 21
161.955735
  0
LINE
  5
128
100
AcDbEntity
  8
M0
  6
CONTINUOUS
370
13
100
AcDbLine
 10
103.949224
 20
164.207629
 11
97.821974
 21
164.207629
  0
LINE
  5
129
100
AcDbEntity
  8
M0
  6
CONTINUOUS
370
13
100
AcDbLine
 10
78.3935
 20
163.900857
 11
80.646906
 21
166.154263
  0
LINE
  5
12A
100
AcDbEntity
  8
M0
  6
CONTINUOUS
370
13
100
AcDbLine
 10
90.347158
 20
162.059913
 11
88.093752
 21
159.806508
  0
LINE
  5
12B
100
AcDbEntity
  8
M0
  6
CONTINUOUS
370
13
100
AcDbLine
 10
103.949224
 20
157.451946
 11
97.821974
 21
157.451946
  0
LINE
  5
12C
100
AcDbEntity
  8
M0
  6
CONTINUOUS
370
13
100
AcDbLine
 10
79.594721
 20
163.900857
 11
81.848127
 21
166.154263
  0
LINE
  5
12D
100
AcDbEntity
  8
M0
  6
CONTINUOUS
370
13
100
AcDbLine
 10
96.508035
 20
160.83561
 11
83.967923
 21
160.83561
  0
LINE
  5
12E
100
AcDbEntity
  8
M0
  6
CONTINUOUS
370
13
100
AcDbLine
 10
83.967923
 20
169.41471
 11
83.967923
 21
160.83561
  0
LINE
  5
12F
100
AcDbEntity
  8
M0
  6
CONTINUOUS
370
13
 62
     7
100
AcDbLine
 10
128.829422
 20
221.939713
 11
109.337063
 21
221.939713
  0
LINE
  5
130
100
AcDbEntity
  8
M0
  6
CONTINUOUS
370
13
100
AcDbLine
 10
119.116236
 20
233.698767
 11
119.116236
 21
253.148801
  0
LINE
  5
131
100
AcDbEntity
  8
M0
  6
CONTINUOUS
370
13
100
AcDbLine
 10
105.009704
 20
212.203654
 11
105.009704
 21
253.148801
  0
LINE
  5
132
100
AcDbEntity
  8
M0
  6
CONTINUOUS
370
13
100
AcDbLine
 10
119.157759
 20
212.203654
 11
105.009704
 21
212.203654
  0
LINE
  5
133
100
AcDbEntity
  8
M0
  6
CONTINUOUS
370
13
100
AcDbLine
 10
104.633567
 20
121.47519
 11
79.392801
 21
121.47519
  0
LINE
  5
134
100
AcDbEntity
  8
M0
  6
CONTINUOUS
370
13
100
AcDbLine
 10
104.633567
 20
117.923806
 11
84.932852
 21
117.923806
  0
LINE
  5
135
100
AcDbEntity
  8
M0
  6
CONTINUOUS
370
13
 62
     7
100
AcDbLine
 10
167.609106
 20
111.433951
 11
175.216048
 21
111.433951
  0
LINE
  5
136
100
AcDbEntity
  8
M0
  6
CONTINUOUS
370
13
 62
     7
100
AcDbLine
 10
106.488137
 20
165.404825
 11
106.488137
 21
147.148166
  0
LINE
  5
137
100
AcDbEntity
  8
M0
  6
CONTINUOUS
370
13
 62
     7
100
AcDbLine
 10
167.609106
 20
111.433951
 11
167.609106
 21
114.570524
  0
LINE
  5
138
100
AcDbEntity
  8
M0
  6
CONTINUOUS
370
13
 62
     7
100
AcDbLine
 10
175.216048
 20
111.433951
 11
175.216048
 21
114.570524
  0
LINE
  5
139
100
AcDbEntity
  8
M0
  6
CONTINUOUS
370
13
 62
     7
100
AcDbLine
 10
167.609106
 20
114.570524
 11
175.216048
 21
114.570524
  0
LINE
  5
13A
100
AcDbEntity
  8
M0
  6
CONTINUOUS
370
13
 62
     7
100
AcDbLine
 10
102.724249
 20
165.404825
 11
102.724249
 21
147.148166
  0
LINE
  5
13B
100
AcDbEntity
  8
M0
  6
CONTINUOUS
370
13
 62
     7
100
AcDbLine
 10
102.724249
 20
165.404825
 11
106.488137
 21
165.404825
  0
LINE
  5
13C
100
AcDbEntity
  8
M0
  6
CONTINUOUS
370
13
 62
     7
100
AcDbLine
 10
102.724249
 20
147.148166
 11
106.488137
 21
147.148166
  0
LINE
  5
13D
100
AcDbEntity
  8
M0
  6
CONTINUOUS
370
13
100
AcDbLine
 10
169.652443
 20
112.190941
 11
169.652443
 21
97.86858
  0
CIRCLE
  5
13E
100
AcDbEntity
  8
M0
  6
CONTINUOUS
370
13
100
AcDbCircle
 10
72.715733
 20
165.12516
 40
2.627878
  0
CIRCLE
  5
13F
100
AcDbEntity
  8
M0
  6
CONTINUOUS
370
13
100
AcDbCircle
 10
117.963838
 20
223.783518
 40
0.782107
  0
CIRCLE
  5
140
100
AcDbEntity
  8
M0
  6
CONTINUOUS
370
13
100
AcDbCircle
 10
120.310158
 20
223.783518
 40
0.782107
  0
CIRCLE
  5
141
100
AcDbEntity
  8
M0
  6
CONTINUOUS
370
13
100
AcDbCircle
 10
105.009704
 20
255.776679
 40
2.627878
  0
CIRCLE
  5
142
100
AcDbEntity
  8
M0
  6
CONTINUOUS
370
13
100
AcDbCircle
 10
119.116236
 20
255.776679
 40
2.627878
  0
CIRCLE
  5
143
100
AcDbEntity
  8
M0
  6
CONTINUOUS
370
13
100
AcDbCircle
 10
127.349117
 20
223.783518
 40
0.782107
  0
CIRCLE
  5
144
100
AcDbEntity
  8
M0
  6
CONTINUOUS
370
13
100
AcDbCircle
 10
115.617518
 20
223.783518
 40
0.782107
  0
CIRCLE
  5
145
100
AcDbEntity
  8
M0
  6
CONTINUOUS
370
13
100
AcDbCircle
 10
113.271198
 20
223.783518
 40
0.782107
  0
CIRCLE
  5
146
100
AcDbEntity
  8
M0
  6
CONTINUOUS
370
13
100
AcDbCircle
 10
125.002797
 20
223.783518
 40
0.782107
  0
CIRCLE
  5
147
100
AcDbEntity
  8
M0
  6
CONTINUOUS
370
13
100
AcDbCircle
 10
110.924878
 20
223.783518
 40
0.782107
  0
CIRCLE
  5
148
100
AcDbEntity
  8
M0
  6
CONTINUOUS
370
13
100
AcDbCircle
 10
122.656477
 20
223.783518
 40
0.782107
  0
CIRCLE
  5
149
100
AcDbEntity
  8
M0
  6
CONTINUOUS
370
13
100
AcDbCircle
 10
173.455913
 20
112.738416
 40
0.547475
  0
CIRCLE
  5
14A
100
AcDbEntity
  8
M0
  6
CONTINUOUS
370
13
100
AcDbCircle
 10
104.606193
 20
157.451946
 40
0.65697
  0
CIRCLE
  5
14B
100
AcDbEntity
  8
M0
  6
CONTINUOUS
370
13
100
AcDbCircle
 10
104.606193
 20
148.323616
 40
0.65697
  0
CIRCLE
  5
14C
100
AcDbEntity
  8
M0
  6
CONTINUOUS
370
13
100
AcDbCircle
 10
104.606193
 20
150.575511
 40
0.65697
  0
CIRCLE
  5
14D
100
AcDbEntity
  8
M0
  6
CONTINUOUS
370
13
100
AcDbCircle
 10
104.606193
 20
155.0793
 40
0.65697
  0
CIRCLE
  5
14E
100
AcDbEntity
  8
M0
  6
CONTINUOUS
370
13
100
AcDbCircle
 10
104.606193
 20
161.955735
 40
0.65697
  0
CIRCLE
  5
14F
100
AcDbEntity
  8
M0
  6
CONTINUOUS
370
13
100
AcDbCircle
 10
104.606193
 20
164.207629
 40
0.65697
  0
CIRCLE
  5
150
100
AcDbEntity
  8
M0
  6
CONTINUOUS
370
13
100
AcDbCircle
 10
104.606193
 20
159.70384
 40
0.65697
  0
CIRCLE
  5
151
100
AcDbEntity
  8
M0
  6
CONTINUOUS
370
13
100
AcDbCircle
 10
169.652443
 20
112.738416
 40
0.547475
  0
CIRCLE
  5
152
100
AcDbEntity
  8
M0
  6
CONTINUOUS
370
13
100
AcDbCircle
 10
104.606193
 20
152.827405
 40
0.65697
  0
ARC
  5
153
100
AcDbEntity
  8
M0
  6
CONTINUOUS
370
13
100
AcDbCircle
 10
97.821974
 20
161.298765
 40
0.65697
100
AcDbArc
 50
90.0
 51
180.0
  0
ARC
  5
154
100
AcDbEntity
  8
M0
  6
CONTINUOUS
370
13
100
AcDbCircle
 10
97.821974
 20
163.55066
 40
0.65697
100
AcDbArc
 50
90.0
 51
180.0
  0
ARC
  5
155
100
AcDbEntity
  8
M0
  6
CONTINUOUS
370
13
100
AcDbCircle
 10
96.508035
 20
161.49258
 40
0.65697
100
AcDbArc
 50
270.0
 51
360.0
  0
ARC
  5
156
100
AcDbEntity
  8
M0
  6
CONTINUOUS
370
13
100
AcDbCircle
 10
96.508035
 20
160.178641
 40
0.65697
100
AcDbArc
 50
0.0
 51
90.0
  0
ARC
  5
157
100
AcDbEntity
  8
M0
  6
CONTINUOUS
370
13
100
AcDbCircle
 10
97.821974
 20
158.108915
 40
0.65697
100
AcDbArc
 50
180.0
 51
270.0
  0
ARC
  5
158
100
AcDbEntity
  8
M0
  6
CONTINUOUS
370
13
100
AcDbCircle
 10
97.821974
 20
160.36081
 40
0.65697
100
AcDbArc
 50
180.0
 51
270.0
  0
TEXT
  5
159
100
AcDbEntity
  8
M0
100
AcDbText
 10
126.085063
 20
25.687983
 40
3.78
  1
※必ずヒートポンプ接続用端子台とヒートポンプ側端子台の色（極性）を合わせて
 41
0.648148
  7
STANDARD
100
AcDbText
  0
TEXT
  5
15A
100
AcDbEntity
  8
M0
100
AcDbText
 10
126.085063
 20
20.395983
 40
3.78
  1
接続してください。間違って接続しますと、機器の故障の原因となります。
 41
0.648148
  7
STANDARD
100
AcDbText
  0
TEXT
  5
15B
100
AcDbEntity
  8
M0
100
AcDbText
 10
168.374397
 20
114.570521
 40
2.688492
  1
ＣＮ６
 41
0.643939
  7
STANDARD
100
AcDbText
  0
TEXT
  5
15C
100
AcDbEntity
  8
M0
100
AcDbText
 10
106.488142
 20
161.302101
 40
2.688492
  1
ＣＮ３０２
 50
270.000001
 41
0.643939
  7
STANDARD
100
AcDbText
  0
LINE
  5
15D
100
AcDbEntity
  8
M0
  6
CONTINUOUS
370
13
100
AcDbLine
 10
169.652443
 20
97.86858
 11
152.478835
 21
97.86858
  0
LINE
  5
15E
100
AcDbEntity
  8
M0
  6
CONTINUOUS
370
13
100
AcDbLine
 10
140.708706
 20
147.607675
 11
140.708706
 21
148.863646
  0
LINE
  5
15F
100
AcDbEntity
  8
M0
  6
CONTINUOUS
370
13
100
AcDbLine
 10
142.309964
 20
148.601985
 11
142.331002
 21
148.580947
  0
LINE
  5
160
100
AcDbEntity
  8
M0
  6
CONTINUOUS
370
13
100
AcDbLine
 10
144.47662
 20
149.70096
 11
144.47662
 21
150.956931
  0
LINE
  5
161
100
AcDbEntity
  8
M0
  6
CONTINUOUS
370
13
100
AcDbLine
 10
141.865911
 20
148.601985
 11
142.331002
 21
148.136894
  0
LINE
  5
162
100
AcDbEntity
  8
M0
  6
CONTINUOUS
370
13
100
AcDbLine
 10
141.569876
 20
148.601985
 11
142.302525
 21
147.869335
  0
LINE
  5
163
100
AcDbEntity
  8
M0
  6
CONTINUOUS
370
13
100
AcDbLine
 10
141.026045
 20
162.004018
 11
142.38668
 21
162.004018
  0
LINE
  5
164
100
AcDbEntity
  8
M0
  6
CONTINUOUS
370
13
100
AcDbLine
 10
144.47662
 20
151.794245
 11
144.47662
 21
153.050216
  0
LINE
  5
165
100
AcDbEntity
  8
M0
  6
CONTINUOUS
370
13
100
AcDbLine
 10
141.026045
 20
162.736668
 11
142.38668
 21
162.736668
  0
LINE
  5
166
100
AcDbEntity
  8
M0
  6
CONTINUOUS
370
13
100
AcDbLine
 10
147.302555
 20
146.770361
 11
138.406092
 21
146.770361
  0
LINE
  5
167
100
AcDbEntity
  8
M0
  6
CONTINUOUS
370
13
100
AcDbLine
 10
140.764384
 20
167.184899
 11
144.532298
 21
167.184899
  0
LINE
  5
168
100
AcDbEntity
  8
M0
  6
CONTINUOUS
370
13
100
AcDbLine
 10
147.358233
 20
168.022213
 11
138.46177
 21
168.022213
  0
LINE
  5
169
100
AcDbEntity
  8
M0
  6
CONTINUOUS
370
13
100
AcDbLine
 10
147.302555
 20
146.770361
 11
147.302555
 21
155.983502
  0
LINE
  5
16A
100
AcDbEntity
  8
M0
  6
CONTINUOUS
370
13
100
AcDbLine
 10
140.708706
 20
151.794245
 11
144.47662
 21
151.794245
  0
LINE
  5
16B
100
AcDbEntity
  8
M0
  6
CONTINUOUS
370
13
100
AcDbLine
 10
140.764384
 20
165.091614
 11
144.532298
 21
165.091614
  0
LINE
  5
16C
100
AcDbEntity
  8
M0
  6
CONTINUOUS
370
13
100
AcDbLine
 10
142.648341
 20
161.742357
 11
142.648341
 21
162.998328
  0
LINE
  5
16D
100
AcDbEntity
  8
M0
  6
CONTINUOUS
370
13
100
AcDbLine
 10
140.708706
 20
147.607675
 11
144.47662
 21
147.607675
  0
LINE
  5
16E
100
AcDbEntity
  8
M0
  6
CONTINUOUS
370
13
100
AcDbLine
 10
141.026045
 20
162.004018
 11
141.026045
 21
162.736668
  0
LINE
  5
16F
100
AcDbEntity
  8
M0
  6
CONTINUOUS
370
13
100
AcDbLine
 10
140.708706
 20
149.70096
 11
140.708706
 21
150.956931
  0
LINE
  5
170
100
AcDbEntity
  8
M0
  6
CONTINUOUS
370
13
100
AcDbLine
 10
140.764384
 20
165.928928
 11
144.532298
 21
165.928928
  0
LINE
  5
171
100
AcDbEntity
  8
M0
  6
CONTINUOUS
370
13
100
AcDbLine
 10
138.406092
 20
146.770361
 11
147.302555
 21
146.770361
  0
LINE
  5
172
100
AcDbEntity
  8
M0
  6
CONTINUOUS
370
13
100
AcDbLine
 10
141.717893
 20
148.601985
 11
142.331002
 21
147.988876
  0
LINE
  5
173
100
AcDbEntity
  8
M0
  6
CONTINUOUS
370
13
100
AcDbLine
 10
142.38668
 20
162.004018
 11
142.38668
 21
162.736668
  0
LINE
  5
174
100
AcDbEntity
  8
M0
  6
CONTINUOUS
370
13
100
AcDbLine
 10
141.026045
 20
162.152035
 11
141.174062
 21
162.004018
  0
LINE
  5
175
100
AcDbEntity
  8
M0
  6
CONTINUOUS
370
13
100
AcDbLine
 10
141.773571
 20
164.829953
 11
142.38668
 21
164.216844
  0
LINE
  5
176
100
AcDbEntity
  8
M0
  6
CONTINUOUS
370
13
100
AcDbLine
 10
141.026045
 20
162.300053
 11
141.32208
 21
162.004018
  0
LINE
  5
177
100
AcDbEntity
  8
M0
  6
CONTINUOUS
370
13
100
AcDbLine
 10
141.625554
 20
162.736668
 11
142.358203
 21
162.004018
  0
LINE
  5
178
100
AcDbEntity
  8
M0
  6
CONTINUOUS
370
13
100
AcDbLine
 10
140.764384
 20
159.649072
 11
140.764384
 21
160.905043
  0
LINE
  5
179
100
AcDbEntity
  8
M0
  6
CONTINUOUS
370
13
100
AcDbLine
 10
141.026045
 20
162.596088
 11
141.618115
 21
162.004018
  0
LINE
  5
17A
100
AcDbEntity
  8
M0
  6
CONTINUOUS
370
13
100
AcDbLine
 10
140.970367
 20
148.461406
 11
141.562437
 21
147.869335
  0
LINE
  5
17B
100
AcDbEntity
  8
M0
  6
CONTINUOUS
370
13
100
AcDbLine
 10
141.329518
 20
164.829953
 11
142.062168
 21
164.097303
  0
LINE
  5
17C
100
AcDbEntity
  8
M0
  6
CONTINUOUS
370
13
100
AcDbLine
 10
141.181501
 20
164.829953
 11
141.91415
 21
164.097303
  0
LINE
  5
17D
100
AcDbEntity
  8
M0
  6
CONTINUOUS
370
13
100
AcDbLine
 10
141.033483
 20
162.736668
 11
141.766133
 21
162.004018
  0
LINE
  5
17E
100
AcDbEntity
  8
M0
  6
CONTINUOUS
370
13
100
AcDbLine
 10
142.217624
 20
162.736668
 11
142.38668
 21
162.567611
  0
LINE
  5
17F
100
AcDbEntity
  8
M0
  6
CONTINUOUS
370
13
100
AcDbLine
 10
142.069606
 20
164.829953
 11
142.38668
 21
164.512879
  0
LINE
  5
180
100
AcDbEntity
  8
M0
  6
CONTINUOUS
370
13
100
AcDbLine
 10
141.026045
 20
162.448071
 11
141.470098
 21
162.004018
  0
LINE
  5
181
100
AcDbEntity
  8
M0
  6
CONTINUOUS
370
13
100
AcDbLine
 10
140.764384
 20
161.742357
 11
144.532298
 21
161.742357
  0
LINE
  5
182
100
AcDbEntity
  8
M0
  6
CONTINUOUS
370
13
100
AcDbLine
 10
141.625553
 20
164.829953
 11
142.358203
 21
164.097303
  0
LINE
  5
183
100
AcDbEntity
  8
M0
  6
CONTINUOUS
370
13
100
AcDbLine
 10
141.477536
 20
164.829953
 11
142.210186
 21
164.097303
  0
LINE
  5
184
100
AcDbEntity
  8
M0
  6
CONTINUOUS
370
13
100
AcDbLine
 10
141.921589
 20
162.736668
 11
142.38668
 21
162.271576
  0
LINE
  5
185
100
AcDbEntity
  8
M0
  6
CONTINUOUS
370
13
100
AcDbLine
 10
141.477536
 20
162.736668
 11
142.210186
 21
162.004018
  0
LINE
  5
186
100
AcDbEntity
  8
M0
  6
CONTINUOUS
370
13
100
AcDbLine
 10
140.970367
 20
150.110638
 11
141.118384
 21
149.962621
  0
LINE
  5
187
100
AcDbEntity
  8
M0
  6
CONTINUOUS
370
13
100
AcDbLine
 10
141.865911
 20
152.788556
 11
142.331002
 21
152.323464
  0
LINE
  5
188
100
AcDbEntity
  8
M0
  6
CONTINUOUS
370
13
100
AcDbLine
 10
140.970367
 20
150.406674
 11
141.41442
 21
149.962621
  0
LINE
  5
189
100
AcDbEntity
  8
M0
  6
CONTINUOUS
370
13
100
AcDbLine
 10
140.970367
 20
152.647976
 11
141.562437
 21
152.055906
  0
LINE
  5
18A
100
AcDbEntity
  8
M0
  6
CONTINUOUS
370
13
100
AcDbLine
 10
141.125823
 20
152.788556
 11
141.858473
 21
152.055906
  0
LINE
  5
18B
100
AcDbEntity
  8
M0
  6
CONTINUOUS
370
13
100
AcDbLine
 10
142.013928
 20
152.788556
 11
142.331002
 21
152.471482
  0
LINE
  5
18C
100
AcDbEntity
  8
M0
  6
CONTINUOUS
370
13
100
AcDbLine
 10
141.27384
 20
150.69527
 11
142.00649
 21
149.962621
  0
LINE
  5
18D
100
AcDbEntity
  8
M0
  6
CONTINUOUS
370
13
100
AcDbLine
 10
140.970367
 20
150.258656
 11
141.266402
 21
149.962621
  0
LINE
  5
18E
100
AcDbEntity
  8
M0
  6
CONTINUOUS
370
13
100
AcDbLine
 10
140.970367
 20
150.554691
 11
141.562437
 21
149.962621
  0
LINE
  5
18F
100
AcDbEntity
  8
M0
  6
CONTINUOUS
370
13
100
AcDbLine
 10
141.717893
 20
150.69527
 11
142.331002
 21
150.082161
  0
LINE
  5
190
100
AcDbEntity
  8
M0
  6
CONTINUOUS
370
13
100
AcDbLine
 10
141.27384
 20
152.788556
 11
142.00649
 21
152.055906
  0
LINE
  5
191
100
AcDbEntity
  8
M0
  6
CONTINUOUS
370
13
100
AcDbLine
 10
141.125823
 20
150.69527
 11
141.858473
 21
149.962621
  0
LINE
  5
192
100
AcDbEntity
  8
M0
  6
CONTINUOUS
370
13
100
AcDbLine
 10
141.865911
 20
150.69527
 11
142.331002
 21
150.230179
  0
TEXT
  5
193
100
AcDbEntity
  8
M0
100
AcDbText
 10
195.538714
 20
147.474737
 40
3.666125
  1
タンクセンサ２（１２０Ｌ部）
 41
0.694444
  7
STANDARD
100
AcDbText
  0
TEXT
  5
194
100
AcDbEntity
  8
M0
100
AcDbText
 10
195.538714
 20
143.78129
 40
3.666125
  1
タンクセンサ３（２６０Ｌ部）
 41
0.694444
  7
STANDARD
100
AcDbText
  0
TEXT
  5
195
100
AcDbEntity
  8
M0
100
AcDbText
 10
195.538714
 20
140.087842
 40
3.666125
  1
タンクセンサ４（４００Ｌ部）
 41
0.694444
  7
STANDARD
100
AcDbText
  0
TEXT
  5
196
100
AcDbEntity
  8
M0
100
AcDbText
 10
195.538714
 20
136.394393
 40
3.666125
  1
タンクセンサ５（最下部）
 41
0.694444
  7
STANDARD
100
AcDbText
  0
TEXT
  5
197
100
AcDbEntity
  8
M0
100
AcDbText
 10
31.657201
 20
163.292097
 40
3.666125
  1
給湯循環ポンプ（１系）
 41
0.694444
  7
STANDARD
100
AcDbText
  0
TEXT
  5
198
100
AcDbEntity
  8
M0
100
AcDbText
 10
146.130549
 20
167.304133
 40
1.046643
  1
ＯＮ
 50
270.000001
 41
0.833334
  7
STANDARD
100
AcDbText
  0
TEXT
  5
199
100
AcDbEntity
  8
M0
100
AcDbText
 10
144.6794
 20
152.842934
 40
1.046643
  1
６
 50
270.000001
 41
0.983333
  7
STANDARD
100
AcDbText
  0
TEXT
  5
19A
100
AcDbEntity
  8
M0
100
AcDbText
 10
144.6794
 20
148.656319
 40
1.046643
  1
８
 50
270.000001
 41
0.983333
  7
STANDARD
100
AcDbText
  0
TEXT
  5
19B
100
AcDbEntity
  8
M0
100
AcDbText
 10
144.735071
 20
160.697758
 40
1.046643
  1
４
 50
270.000001
 41
0.983333
  7
STANDARD
100
AcDbText
  0
TEXT
  5
19C
100
AcDbEntity
  8
M0
100
AcDbText
 10
144.735071
 20
164.884289
 40
1.046643
  1
２
 50
270.000001
 41
0.983333
  7
STANDARD
100
AcDbText
  0
TEXT
  5
19D
100
AcDbEntity
  8
M0
100
AcDbText
 10
144.6794
 20
154.936196
 40
1.046643
  1
５
 50
270.000001
 41
0.983333
  7
STANDARD
100
AcDbText
  0
TEXT
  5
19E
100
AcDbEntity
  8
M0
100
AcDbText
 10
144.6794
 20
150.74959
 40
1.046643
  1
７
 50
270.000001
 41
0.983333
  7
STANDARD
100
AcDbText
  0
TEXT
  5
19F
100
AcDbEntity
  8
M0
100
AcDbText
 10
144.735071
 20
162.791012
 40
1.046643
  1
３
 50
270.000001
 41
0.983333
  7
STANDARD
100
AcDbText
  0
TEXT
  5
1A0
100
AcDbEntity
  8
M0
100
AcDbText
 10
144.735071
 20
166.977597
 40
1.046643
  1
１
 50
270.000001
 41
0.983333
  7
STANDARD
100
AcDbText
  0
LINE
  5
1A1
100
AcDbEntity
  8
M0
  6
CONTINUOUS
370
13
100
AcDbLine
 10
142.013928
 20
150.69527
 11
142.331002
 21
150.378197
  0
LINE
  5
1A2
100
AcDbEntity
  8
M0
  6
CONTINUOUS
370
13
100
AcDbLine
 10
141.27384
 20
148.601985
 11
142.00649
 21
147.869335
  0
LINE
  5
1A3
100
AcDbEntity
  8
M0
  6
CONTINUOUS
370
13
100
AcDbLine
 10
141.569876
 20
152.788556
 11
142.302525
 21
152.055906
  0
LINE
  5
1A4
100
AcDbEntity
  8
M0
  6
CONTINUOUS
370
13
100
AcDbLine
 10
141.421858
 20
148.601985
 11
142.154508
 21
147.869335
  0
LINE
  5
1A5
100
AcDbEntity
  8
M0
  6
CONTINUOUS
370
13
100
AcDbLine
 10
142.161946
 20
150.69527
 11
142.331002
 21
150.526214
  0
LINE
  5
1A6
100
AcDbEntity
  8
M0
  6
CONTINUOUS
370
13
100
AcDbLine
 10
142.161946
 20
148.601985
 11
142.331002
 21
148.432929
  0
LINE
  5
1A7
100
AcDbEntity
  8
M0
  6
CONTINUOUS
370
13
100
AcDbLine
 10
140.970367
 20
152.499959
 11
141.41442
 21
152.055906
  0
LINE
  5
1A8
100
AcDbEntity
  8
M0
  6
CONTINUOUS
370
13
100
AcDbLine
 10
140.970367
 20
152.351941
 11
141.266402
 21
152.055906
  0
LINE
  5
1A9
100
AcDbEntity
  8
M0
  6
CONTINUOUS
370
13
100
AcDbLine
 10
140.970367
 20
148.165371
 11
141.266402
 21
147.869335
  0
LINE
  5
1AA
100
AcDbEntity
  8
M0
  6
CONTINUOUS
370
13
100
AcDbLine
 10
141.421858
 20
152.788556
 11
142.154508
 21
152.055906
  0
LINE
  5
1AB
100
AcDbEntity
  8
M0
  6
CONTINUOUS
370
13
100
AcDbLine
 10
142.013928
 20
148.601985
 11
142.331002
 21
148.284911
  0
LINE
  5
1AC
100
AcDbEntity
  8
M0
  6
CONTINUOUS
370
13
100
AcDbLine
 10
140.970367
 20
152.788556
 11
142.331002
 21
152.788556
  0
LINE
  5
1AD
100
AcDbEntity
  8
M0
  6
CONTINUOUS
370
13
100
AcDbLine
 10
142.648341
 20
159.649072
 11
142.648341
 21
160.905043
  0
LINE
  5
1AE
100
AcDbEntity
  8
M0
  6
CONTINUOUS
370
13
100
AcDbLine
 10
141.181501
 20
162.736668
 11
141.914151
 21
162.004018
  0
LINE
  5
1AF
100
AcDbEntity
  8
M0
  6
CONTINUOUS
370
13
100
AcDbLine
 10
142.648341
 20
165.928928
 11
142.648341
 21
167.184899
  0
LINE
  5
1B0
100
AcDbEntity
  8
M0
  6
CONTINUOUS
370
13
100
AcDbLine
 10
140.764384
 20
162.998328
 11
144.532298
 21
162.998328
  0
LINE
  5
1B1
100
AcDbEntity
  8
M0
  6
CONTINUOUS
370
13
100
AcDbLine
 10
142.331002
 20
147.869335
 11
142.331002
 21
148.601985
  0
LINE
  5
1B2
100
AcDbEntity
  8
M0
  6
CONTINUOUS
370
13
100
AcDbLine
 10
142.331002
 20
149.962621
 11
142.331002
 21
150.69527
  0
LINE
  5
1B3
100
AcDbEntity
  8
M0
  6
CONTINUOUS
370
13
100
AcDbLine
 10
140.708706
 20
150.956931
 11
144.47662
 21
150.956931
  0
LINE
  5
1B4
100
AcDbEntity
  8
M0
  6
CONTINUOUS
370
13
100
AcDbLine
 10
140.764384
 20
163.835642
 11
144.532298
 21
163.835642
  0
LINE
  5
1B5
100
AcDbEntity
  8
M0
  6
CONTINUOUS
370
13
100
AcDbLine
 10
141.329518
 20
162.736668
 11
142.062168
 21
162.004018
  0
LINE
  5
1B6
100
AcDbEntity
  8
M0
  6
CONTINUOUS
370
13
100
AcDbLine
 10
140.970367
 20
149.962621
 11
140.970367
 21
150.69527
  0
LINE
  5
1B7
100
AcDbEntity
  8
M0
  6
CONTINUOUS
370
13
100
AcDbLine
 10
138.406092
 20
155.983502
 11
138.406092
 21
146.770361
  0
LINE
  5
1B8
100
AcDbEntity
  8
M0
  6
CONTINUOUS
370
13
100
AcDbLine
 10
140.708706
 20
148.863646
 11
144.47662
 21
148.863646
  0
LINE
  5
1B9
100
AcDbEntity
  8
M0
  6
CONTINUOUS
370
13
100
AcDbLine
 10
140.977805
 20
152.788556
 11
141.710455
 21
152.055906
  0
LINE
  5
1BA
100
AcDbEntity
  8
M0
  6
CONTINUOUS
370
13
100
AcDbLine
 10
140.970367
 20
148.017353
 11
141.118384
 21
147.869335
  0
LINE
  5
1BB
100
AcDbEntity
  8
M0
  6
CONTINUOUS
370
13
100
AcDbLine
 10
141.421858
 20
150.69527
 11
142.154508
 21
149.962621
  0
LINE
  5
1BC
100
AcDbEntity
  8
M0
  6
CONTINUOUS
370
13
100
AcDbLine
 10
141.569876
 20
150.69527
 11
142.302525
 21
149.962621
  0
LINE
  5
1BD
100
AcDbEntity
  8
M0
  6
CONTINUOUS
370
13
100
AcDbLine
 10
141.717893
 20
152.788556
 11
142.331002
 21
152.175447
  0
LINE
  5
1BE
100
AcDbEntity
  8
M0
  6
CONTINUOUS
370
13
100
AcDbLine
 10
140.970367
 20
152.203924
 11
141.118384
 21
152.055906
  0
LINE
  5
1BF
100
AcDbEntity
  8
M0
  6
CONTINUOUS
370
13
100
AcDbLine
 10
142.331002
 20
152.055906
 11
142.331002
 21
152.788556
  0
LINE
  5
1C0
100
AcDbEntity
  8
M0
  6
CONTINUOUS
370
13
100
AcDbLine
 10
142.309964
 20
152.788556
 11
142.331002
 21
152.767517
  0
LINE
  5
1C1
100
AcDbEntity
  8
M0
  6
CONTINUOUS
370
13
100
AcDbLine
 10
142.648341
 20
163.835642
 11
142.648341
 21
165.091614
  0
LINE
  5
1C2
100
AcDbEntity
  8
M0
  6
CONTINUOUS
370
13
100
AcDbLine
 10
140.977805
 20
150.69527
 11
141.710455
 21
149.962621
  0
LINE
  5
1C3
100
AcDbEntity
  8
M0
  6
CONTINUOUS
370
13
100
AcDbLine
 10
142.309964
 20
150.69527
 11
142.331002
 21
150.674232
  0
LINE
  5
1C4
100
AcDbEntity
  8
M0
  6
CONTINUOUS
370
13
100
AcDbLine
 10
140.970367
 20
152.055906
 11
140.970367
 21
152.788556
  0
LINE
  5
1C5
100
AcDbEntity
  8
M0
  6
CONTINUOUS
370
13
100
AcDbLine
 10
142.161946
 20
152.788556
 11
142.331002
 21
152.6195
  0
LINE
  5
1C6
100
AcDbEntity
  8
M0
  6
CONTINUOUS
370
13
100
AcDbLine
 10
141.026045
 20
166.782659
 11
141.618115
 21
166.190588
  0
LINE
  5
1C7
100
AcDbEntity
  8
M0
  6
CONTINUOUS
370
13
100
AcDbLine
 10
141.026045
 20
166.634641
 11
141.470098
 21
166.190588
  0
LINE
  5
1C8
100
AcDbEntity
  8
M0
  6
CONTINUOUS
370
13
100
AcDbLine
 10
141.026045
 20
166.923238
 11
142.38668
 21
166.923238
  0
LINE
  5
1C9
100
AcDbEntity
  8
M0
  6
CONTINUOUS
370
13
100
AcDbLine
 10
141.033483
 20
166.923238
 11
141.766133
 21
166.190588
  0
LINE
  5
1CA
100
AcDbEntity
  8
M0
  6
CONTINUOUS
370
13
100
AcDbLine
 10
141.026045
 20
166.190588
 11
142.38668
 21
166.190588
  0
LINE
  5
1CB
100
AcDbEntity
  8
M0
  6
CONTINUOUS
370
13
100
AcDbLine
 10
142.38668
 20
166.190588
 11
142.38668
 21
166.923238
  0
LINE
  5
1CC
100
AcDbEntity
  8
M0
  6
CONTINUOUS
370
13
100
AcDbLine
 10
141.477536
 20
166.923238
 11
142.210186
 21
166.190588
  0
LINE
  5
1CD
100
AcDbEntity
  8
M0
  6
CONTINUOUS
370
13
100
AcDbLine
 10
142.365642
 20
166.923238
 11
142.38668
 21
166.9022
  0
LINE
  5
1CE
100
AcDbEntity
  8
M0
  6
CONTINUOUS
370
13
100
AcDbLine
 10
141.625553
 20
166.923238
 11
142.358203
 21
166.190588
  0
LINE
  5
1CF
100
AcDbEntity
  8
M0
  6
CONTINUOUS
370
13
100
AcDbLine
 10
141.026045
 20
166.190588
 11
141.026045
 21
166.923238
  0
LINE
  5
1D0
100
AcDbEntity
  8
M0
  6
CONTINUOUS
370
13
100
AcDbLine
 10
141.026045
 20
166.486624
 11
141.32208
 21
166.190588
  0
LINE
  5
1D1
100
AcDbEntity
  8
M0
  6
CONTINUOUS
370
13
100
AcDbLine
 10
141.329518
 20
166.923238
 11
142.062168
 21
166.190588
  0
LINE
  5
1D2
100
AcDbEntity
  8
M0
  6
CONTINUOUS
370
13
100
AcDbLine
 10
141.477536
 20
160.643382
 11
142.210186
 21
159.910732
  0
LINE
  5
1D3
100
AcDbEntity
  8
M0
  6
CONTINUOUS
370
13
100
AcDbLine
 10
142.365642
 20
160.643382
 11
142.38668
 21
160.622344
  0
LINE
  5
1D4
100
AcDbEntity
  8
M0
  6
CONTINUOUS
370
13
100
AcDbLine
 10
141.625553
 20
160.643382
 11
142.358203
 21
159.910732
  0
LINE
  5
1D5
100
AcDbEntity
  8
M0
  6
CONTINUOUS
370
13
100
AcDbLine
 10
141.026045
 20
159.910732
 11
141.026045
 21
160.643382
  0
LINE
  5
1D6
100
AcDbEntity
  8
M0
  6
CONTINUOUS
370
13
100
AcDbLine
 10
141.026045
 20
160.643382
 11
142.38668
 21
160.643382
  0
LINE
  5
1D7
100
AcDbEntity
  8
M0
  6
CONTINUOUS
370
13
100
AcDbLine
 10
141.329518
 20
160.643382
 11
142.062168
 21
159.910732
  0
LINE
  5
1D8
100
AcDbEntity
  8
M0
  6
CONTINUOUS
370
13
100
AcDbLine
 10
142.069606
 20
160.643382
 11
142.38668
 21
160.326308
  0
LINE
  5
1D9
100
AcDbEntity
  8
M0
  6
CONTINUOUS
370
13
100
AcDbLine
 10
141.026045
 20
160.05875
 11
141.174062
 21
159.910732
  0
LINE
  5
1DA
100
AcDbEntity
  8
M0
  6
CONTINUOUS
370
13
100
AcDbLine
 10
142.217624
 20
166.923238
 11
142.38668
 21
166.754182
  0
LINE
  5
1DB
100
AcDbEntity
  8
M0
  6
CONTINUOUS
370
13
100
AcDbLine
 10
141.773571
 20
160.643382
 11
142.38668
 21
160.030273
  0
LINE
  5
1DC
100
AcDbEntity
  8
M0
  6
CONTINUOUS
370
13
100
AcDbLine
 10
142.217624
 20
160.643382
 11
142.38668
 21
160.474326
  0
LINE
  5
1DD
100
AcDbEntity
  8
M0
  6
CONTINUOUS
370
13
100
AcDbLine
 10
141.181501
 20
160.643382
 11
141.91415
 21
159.910732
  0
LINE
  5
1DE
100
AcDbEntity
  8
M0
  6
CONTINUOUS
370
13
100
AcDbLine
 10
141.921589
 20
160.643382
 11
142.38668
 21
160.178291
  0
LINE
  5
1DF
100
AcDbEntity
  8
M0
  6
CONTINUOUS
370
13
100
AcDbLine
 10
140.970367
 20
154.741262
 11
141.562437
 21
154.149191
  0
LINE
  5
1E0
100
AcDbEntity
  8
M0
  6
CONTINUOUS
370
13
100
AcDbLine
 10
142.013928
 20
154.881841
 11
142.331002
 21
154.564767
  0
LINE
  5
1E1
100
AcDbEntity
  8
M0
  6
CONTINUOUS
370
13
100
AcDbLine
 10
140.977805
 20
154.881841
 11
141.710455
 21
154.149191
  0
LINE
  5
1E2
100
AcDbEntity
  8
M0
  6
CONTINUOUS
370
13
100
AcDbLine
 10
142.161946
 20
154.881841
 11
142.331002
 21
154.712785
  0
LINE
  5
1E3
100
AcDbEntity
  8
M0
  6
CONTINUOUS
370
13
100
AcDbLine
 10
141.421858
 20
154.881841
 11
142.154508
 21
154.149191
  0
LINE
  5
1E4
100
AcDbEntity
  8
M0
  6
CONTINUOUS
370
13
100
AcDbLine
 10
141.27384
 20
154.881841
 11
142.00649
 21
154.149191
  0
LINE
  5
1E5
100
AcDbEntity
  8
M0
  6
CONTINUOUS
370
13
100
AcDbLine
 10
142.069606
 20
162.736668
 11
142.38668
 21
162.419594
  0
LINE
  5
1E6
100
AcDbEntity
  8
M0
  6
CONTINUOUS
370
13
100
AcDbLine
 10
141.717893
 20
154.881841
 11
142.331002
 21
154.268732
  0
LINE
  5
1E7
100
AcDbEntity
  8
M0
  6
CONTINUOUS
370
13
100
AcDbLine
 10
140.970367
 20
154.297209
 11
141.118384
 21
154.149191
  0
TEXT
  5
1E8
100
AcDbEntity
  8
M0
100
AcDbText
 10
146.074869
 20
155.265421
 40
1.046643
  1
ＯＮ
 50
270.000001
 41
0.833334
  7
STANDARD
100
AcDbText
  0
LINE
  5
1E9
100
AcDbEntity
  8
M0
  6
CONTINUOUS
370
13
100
AcDbLine
 10
141.865911
 20
154.881841
 11
142.331002
 21
154.41675
  0
LINE
  5
1EA
100
AcDbEntity
  8
M0
  6
CONTINUOUS
370
13
100
AcDbLine
 10
142.365642
 20
162.736668
 11
142.38668
 21
162.715629
  0
LINE
  5
1EB
100
AcDbEntity
  8
M0
  6
CONTINUOUS
370
13
100
AcDbLine
 10
141.181501
 20
166.923238
 11
141.91415
 21
166.190588
  0
LINE
  5
1EC
100
AcDbEntity
  8
M0
  6
CONTINUOUS
370
13
100
AcDbLine
 10
142.069606
 20
166.923238
 11
142.38668
 21
166.606164
  0
LINE
  5
1ED
100
AcDbEntity
  8
M0
  6
CONTINUOUS
370
13
100
AcDbLine
 10
140.970367
 20
154.149191
 11
140.970367
 21
154.881841
  0
LINE
  5
1EE
100
AcDbEntity
  8
M0
  6
CONTINUOUS
370
13
100
AcDbLine
 10
141.921589
 20
166.923238
 11
142.38668
 21
166.458147
  0
LINE
  5
1EF
100
AcDbEntity
  8
M0
  6
CONTINUOUS
370
13
100
AcDbLine
 10
141.773571
 20
166.923238
 11
142.38668
 21
166.310129
  0
LINE
  5
1F0
100
AcDbEntity
  8
M0
  6
CONTINUOUS
370
13
100
AcDbLine
 10
141.125823
 20
154.881841
 11
141.858473
 21
154.149191
  0
LINE
  5
1F1
100
AcDbEntity
  8
M0
  6
CONTINUOUS
370
13
100
AcDbLine
 10
140.970367
 20
154.593244
 11
141.41442
 21
154.149191
  0
LINE
  5
1F2
100
AcDbEntity
  8
M0
  6
CONTINUOUS
370
13
100
AcDbLine
 10
140.970367
 20
154.881841
 11
142.331002
 21
154.881841
  0
LINE
  5
1F3
100
AcDbEntity
  8
M0
  6
CONTINUOUS
370
13
100
AcDbLine
 10
140.970367
 20
154.445226
 11
141.266402
 21
154.149191
  0
LINE
  5
1F4
100
AcDbEntity
  8
M0
  6
CONTINUOUS
370
13
100
AcDbLine
 10
140.970367
 20
154.149191
 11
142.331002
 21
154.149191
  0
LINE
  5
1F5
100
AcDbEntity
  8
M0
  6
CONTINUOUS
370
13
100
AcDbLine
 10
141.026045
 20
166.338606
 11
141.174062
 21
166.190588
  0
LINE
  5
1F6
100
AcDbEntity
  8
M0
  6
CONTINUOUS
370
13
100
AcDbLine
 10
141.569876
 20
154.881841
 11
142.302525
 21
154.149191
  0
LINE
  5
1F7
100
AcDbEntity
  8
M0
  6
CONTINUOUS
370
13
100
AcDbLine
 10
142.592663
 20
151.794245
 11
142.592663
 21
153.050216
  0
LINE
  5
1F8
100
AcDbEntity
  8
M0
  6
CONTINUOUS
370
13
100
AcDbLine
 10
142.592663
 20
147.607675
 11
142.592663
 21
148.863646
  0
LINE
  5
1F9
100
AcDbEntity
  8
M0
  6
CONTINUOUS
370
13
100
AcDbLine
 10
140.970367
 20
148.601985
 11
142.331002
 21
148.601985
  0
LINE
  5
1FA
100
AcDbEntity
  8
M0
  6
CONTINUOUS
370
13
100
AcDbLine
 10
140.708706
 20
153.050216
 11
144.47662
 21
153.050216
  0
LINE
  5
1FB
100
AcDbEntity
  8
M0
  6
CONTINUOUS
370
13
100
AcDbLine
 10
140.708706
 20
151.794245
 11
140.708706
 21
153.050216
  0
LINE
  5
1FC
100
AcDbEntity
  8
M0
  6
CONTINUOUS
370
13
100
AcDbLine
 10
142.592663
 20
153.887531
 11
142.592663
 21
155.143502
  0
LINE
  5
1FD
100
AcDbEntity
  8
M0
  6
CONTINUOUS
370
13
100
AcDbLine
 10
141.026045
 20
164.245321
 11
141.174062
 21
164.097303
  0
LINE
  5
1FE
100
AcDbEntity
  8
M0
  6
CONTINUOUS
370
13
100
AcDbLine
 10
140.764384
 20
165.928928
 11
140.764384
 21
167.184899
  0
LINE
  5
1FF
100
AcDbEntity
  8
M0
  6
CONTINUOUS
370
13
100
AcDbLine
 10
144.532298
 20
165.928928
 11
144.532298
 21
167.184899
  0
LINE
  5
200
100
AcDbEntity
  8
M0
  6
CONTINUOUS
370
13
100
AcDbLine
 10
144.532298
 20
163.835642
 11
144.532298
 21
165.091614
  0
LINE
  5
201
100
AcDbEntity
  8
M0
  6
CONTINUOUS
370
13
100
AcDbLine
 10
142.592663
 20
149.70096
 11
142.592663
 21
150.956931
  0
LINE
  5
202
100
AcDbEntity
  8
M0
  6
CONTINUOUS
370
13
100
AcDbLine
 10
142.365642
 20
164.829953
 11
142.38668
 21
164.808914
  0
LINE
  5
203
100
AcDbEntity
  8
M0
  6
CONTINUOUS
370
13
100
AcDbLine
 10
144.47662
 20
153.887531
 11
144.47662
 21
155.143502
  0
LINE
  5
204
100
AcDbEntity
  8
M0
  6
CONTINUOUS
370
13
100
AcDbLine
 10
140.764384
 20
160.905043
 11
144.532298
 21
160.905043
  0
LINE
  5
205
100
AcDbEntity
  8
M0
  6
CONTINUOUS
370
13
100
AcDbLine
 10
144.532298
 20
159.649072
 11
144.532298
 21
160.905043
  0
LINE
  5
206
100
AcDbEntity
  8
M0
  6
CONTINUOUS
370
13
100
AcDbLine
 10
140.764384
 20
161.742357
 11
140.764384
 21
162.998328
  0
LINE
  5
207
100
AcDbEntity
  8
M0
  6
CONTINUOUS
370
13
100
AcDbLine
 10
141.921589
 20
164.829953
 11
142.38668
 21
164.364861
  0
LINE
  5
208
100
AcDbEntity
  8
M0
  6
CONTINUOUS
370
13
100
AcDbLine
 10
144.47662
 20
147.607675
 11
144.47662
 21
148.863646
  0
LINE
  5
209
100
AcDbEntity
  8
M0
  6
CONTINUOUS
370
13
100
AcDbLine
 10
140.708706
 20
153.887531
 11
144.47662
 21
153.887531
  0
LINE
  5
20A
100
AcDbEntity
  8
M0
  6
CONTINUOUS
370
13
100
AcDbLine
 10
140.708706
 20
149.70096
 11
144.47662
 21
149.70096
  0
LINE
  5
20B
100
AcDbEntity
  8
M0
  6
CONTINUOUS
370
13
100
AcDbLine
 10
140.764384
 20
163.835642
 11
140.764384
 21
165.091614
  0
LINE
  5
20C
100
AcDbEntity
  8
M0
  6
CONTINUOUS
370
13
100
AcDbLine
 10
140.708706
 20
153.887531
 11
140.708706
 21
155.143502
  0
LINE
  5
20D
100
AcDbEntity
  8
M0
  6
CONTINUOUS
370
13
100
AcDbLine
 10
140.764384
 20
159.649072
 11
144.532298
 21
159.649072
  0
LINE
  5
20E
100
AcDbEntity
  8
M0
  6
CONTINUOUS
370
13
100
AcDbLine
 10
140.764384
 20
158.811758
 11
144.532298
 21
158.811758
  0
LINE
  5
20F
100
AcDbEntity
  8
M0
  6
CONTINUOUS
370
13
100
AcDbLine
 10
144.532298
 20
161.742357
 11
144.532298
 21
162.998328
  0
LINE
  5
210
100
AcDbEntity
  8
M0
  6
CONTINUOUS
370
13
100
AcDbLine
 10
140.970367
 20
148.313388
 11
141.41442
 21
147.869335
  0
LINE
  5
211
100
AcDbEntity
  8
M0
  6
CONTINUOUS
370
13
100
AcDbLine
 10
140.977805
 20
148.601985
 11
141.710455
 21
147.869335
  0
LINE
  5
212
100
AcDbEntity
  8
M0
  6
CONTINUOUS
370
13
100
AcDbLine
 10
141.026045
 20
159.910732
 11
142.38668
 21
159.910732
  0
LINE
  5
213
100
AcDbEntity
  8
M0
  6
CONTINUOUS
370
13
100
AcDbLine
 10
141.026045
 20
164.829953
 11
142.38668
 21
164.829953
  0
LINE
  5
214
100
AcDbEntity
  8
M0
  6
CONTINUOUS
370
13
100
AcDbLine
 10
142.38668
 20
164.097303
 11
142.38668
 21
164.829953
  0
LINE
  5
215
100
AcDbEntity
  8
M0
  6
CONTINUOUS
370
13
100
AcDbLine
 10
141.125823
 20
148.601985
 11
141.858473
 21
147.869335
  0
LINE
  5
216
100
AcDbEntity
  8
M0
  6
CONTINUOUS
370
13
100
AcDbLine
 10
141.026045
 20
160.502803
 11
141.618115
 21
159.910732
  0
LINE
  5
217
100
AcDbEntity
  8
M0
  6
CONTINUOUS
370
13
100
AcDbLine
 10
141.026045
 20
160.354785
 11
141.470098
 21
159.910732
  0
LINE
  5
218
100
AcDbEntity
  8
M0
  6
CONTINUOUS
370
13
100
AcDbLine
 10
142.331002
 20
154.149191
 11
142.331002
 21
154.881841
  0
LINE
  5
219
100
AcDbEntity
  8
M0
  6
CONTINUOUS
370
13
100
AcDbLine
 10
141.033483
 20
160.643382
 11
141.766133
 21
159.910732
  0
LINE
  5
21A
100
AcDbEntity
  8
M0
  6
CONTINUOUS
370
13
100
AcDbLine
 10
141.026045
 20
164.097303
 11
142.38668
 21
164.097303
  0
LINE
  5
21B
100
AcDbEntity
  8
M0
  6
CONTINUOUS
370
13
100
AcDbLine
 10
142.38668
 20
159.910732
 11
142.38668
 21
160.643382
  0
LINE
  5
21C
100
AcDbEntity
  8
M0
  6
CONTINUOUS
370
13
100
AcDbLine
 10
140.970367
 20
149.962621
 11
142.331002
 21
149.962621
  0
LINE
  5
21D
100
AcDbEntity
  8
M0
  6
CONTINUOUS
370
13
100
AcDbLine
 10
140.970367
 20
152.055906
 11
142.331002
 21
152.055906
  0
LINE
  5
21E
100
AcDbEntity
  8
M0
  6
CONTINUOUS
370
13
100
AcDbLine
 10
141.026045
 20
164.689374
 11
141.618115
 21
164.097303
  0
LINE
  5
21F
100
AcDbEntity
  8
M0
  6
CONTINUOUS
370
13
100
AcDbLine
 10
140.970367
 20
147.869335
 11
142.331002
 21
147.869335
  0
LINE
  5
220
100
AcDbEntity
  8
M0
  6
CONTINUOUS
370
13
100
AcDbLine
 10
140.970367
 20
147.869335
 11
140.970367
 21
148.601985
  0
LINE
  5
221
100
AcDbEntity
  8
M0
  6
CONTINUOUS
370
13
100
AcDbLine
 10
141.026045
 20
164.541356
 11
141.470098
 21
164.097303
  0
LINE
  5
222
100
AcDbEntity
  8
M0
  6
CONTINUOUS
370
13
100
AcDbLine
 10
142.217624
 20
164.829953
 11
142.38668
 21
164.660897
  0
LINE
  5
223
100
AcDbEntity
  8
M0
  6
CONTINUOUS
370
13
100
AcDbLine
 10
141.026045
 20
164.097303
 11
141.026045
 21
164.829953
  0
LINE
  5
224
100
AcDbEntity
  8
M0
  6
CONTINUOUS
370
13
100
AcDbLine
 10
141.026045
 20
160.206768
 11
141.32208
 21
159.910732
  0
LINE
  5
225
100
AcDbEntity
  8
M0
  6
CONTINUOUS
370
13
100
AcDbLine
 10
141.033483
 20
164.829953
 11
141.766133
 21
164.097303
  0
LINE
  5
226
100
AcDbEntity
  8
M0
  6
CONTINUOUS
370
13
100
AcDbLine
 10
140.970367
 20
150.69527
 11
142.331002
 21
150.69527
  0
LINE
  5
227
100
AcDbEntity
  8
M0
  6
CONTINUOUS
370
13
100
AcDbLine
 10
141.773571
 20
162.736668
 11
142.38668
 21
162.123559
  0
LINE
  5
228
100
AcDbEntity
  8
M0
  6
CONTINUOUS
370
13
100
AcDbLine
 10
141.026045
 20
164.393338
 11
141.32208
 21
164.097303
  0
LINE
  5
229
100
AcDbEntity
  8
M0
  6
CONTINUOUS
370
13
100
AcDbLine
 10
138.46177
 20
168.022213
 11
138.46177
 21
158.811758
  0
LINE
  5
22A
100
AcDbEntity
  8
M0
  6
CONTINUOUS
370
13
100
AcDbLine
 10
147.358233
 20
168.022213
 11
147.358233
 21
158.811758
  0
LINE
  5
22B
100
AcDbEntity
  8
M0
  6
CONTINUOUS
370
13
100
AcDbLine
 10
144.47662
 20
155.143502
 11
140.708706
 21
155.143502
  0
LINE
  5
22C
100
AcDbEntity
  8
M0
  6
CONTINUOUS
370
13
100
AcDbLine
 10
147.302555
 20
155.983502
 11
138.406092
 21
155.983502
  0
LINE
  5
22D
100
AcDbEntity
  8
M0
  6
CONTINUOUS
370
13
100
AcDbLine
 10
138.46177
 20
158.811758
 11
147.358233
 21
158.811758
  0
CIRCLE
  5
22E
100
AcDbEntity
  8
M0
  6
CONTINUOUS
370
13
100
AcDbCircle
 10
163.047857
 20
167.145421
 40
1.166529
  0
TEXT
  5
22F
100
AcDbEntity
  8
M0
100
AcDbText
 10
116.892122
 20
281.063419
 40
3.666125
  1
給湯流量調整弁
 50
270.000001
 41
0.694444
  7
STANDARD
100
AcDbText
  0
TEXT
  5
230
100
AcDbEntity
  8
M0
100
AcDbText
 10
111.75955
 20
281.063419
 40
3.666125
  1
（２系）
 50
270.000001
 41
0.694444
  7
STANDARD
100
AcDbText
  0
TEXT
  5
231
100
AcDbEntity
  8
M0
100
AcDbText
 10
103.073553
 20
281.478519
 40
3.666125
  1
給湯流量調整弁
 50
270.000001
 41
0.694444
  7
STANDARD
100
AcDbText
  0
TEXT
  5
232
100
AcDbEntity
  8
M0
100
AcDbText
 10
97.940977
 20
281.478519
 40
3.666125
  1
（１系）
 50
270.000001
 41
0.694444
  7
STANDARD
100
AcDbText
  0
LINE
  5
233
100
AcDbEntity
  8
M0
  6
CONTINUOUS
370
13
100
AcDbLine
 10
212.475523
 20
63.947459
 11
214.370629
 21
63.947459
  0
LINE
  5
234
100
AcDbEntity
  8
M0
  6
CONTINUOUS
370
13
100
AcDbLine
 10
212.475523
 20
67.105967
 11
214.370629
 21
67.105967
  0
LINE
  5
235
100
AcDbEntity
  8
M0
  6
DASHDOT
370
13
100
AcDbLine
 10
205.932401
 20
56.098561
 11
205.932401
 21
78.113372
  0
LINE
  5
236
100
AcDbEntity
  8
M0
  6
DASHDOT
370
13
100
AcDbLine
 10
226.44487
 20
78.113372
 11
205.932401
 21
78.113372
  0
LINE
  5
237
100
AcDbEntity
  8
M0
  6
CONTINUOUS
370
13
100
AcDbLine
 10
216.581584
 20
62.098561
 11
216.581584
 21
72.113372
  0
LINE
  5
238
100
AcDbEntity
  8
M0
  6
CONTINUOUS
370
13
100
AcDbLine
 10
216.581584
 20
72.113372
 11
210.264569
 21
72.113372
  0
LINE
  5
239
100
AcDbEntity
  8
M0
  6
CONTINUOUS
370
13
100
AcDbLine
 10
210.264569
 20
72.113372
 11
210.264569
 21
62.098561
  0
LINE
  5
23A
100
AcDbEntity
  8
M0
  6
CONTINUOUS
370
13
100
AcDbLine
 10
210.264569
 20
62.098561
 11
216.581584
 21
62.098561
  0
LINE
  5
23B
100
AcDbEntity
  8
M0
  6
CONTINUOUS
370
13
100
AcDbLine
 10
214.37063
 20
70.263448
 11
212.475523
 21
70.263448
  0
LINE
  5
23C
100
AcDbEntity
  8
M0
  6
DASHDOT
370
13
100
AcDbLine
 10
226.44487
 20
56.098561
 11
205.932401
 21
56.098561
  0
LINE
  5
4F
102
{ACAD_REACTORS
330
4E
102
}
330
1F
100
AcDbEntity
  8
M0
  6
DASHED
370
13
100
AcDbLine
 10
211.21212
 20
70.263448
 11
182.136184
 21
70.263448
  0
LINE
  5
53
102
{ACAD_REACTORS
330
52
102
}
330
1F
100
AcDbEntity
  8
M0
  6
DASHED
370
13
100
AcDbLine
 10
182.136184
 20
67.105967
 11
211.212121
 21
67.105967
  0
LINE
  5
57
102
{ACAD_REACTORS
330
56
102
}
330
1F
100
AcDbEntity
  8
M0
  6
DASHED
370
13
100
AcDbLine
 10
182.136184
 20
63.947459
 11
211.212121
 21
63.947459
  0
LINE
  5
23D
100
AcDbEntity
  8
M0
  6
CONTINUOUS
370
13
100
AcDbLine
 10
178.977674
 20
63.946433
 11
180.872781
 21
63.946433
  0
LINE
  5
23E
100
AcDbEntity
  8
M0
  6
CONTINUOUS
370
13
100
AcDbLine
 10
180.87278
 20
70.262422
 11
178.977675
 21
70.262422
  0
LINE
  5
23F
100
AcDbEntity
  8
M0
  6
CONTINUOUS
370
13
100
AcDbLine
 10
183.083736
 20
62.097535
 11
183.083736
 21
72.112346
  0
LINE
  5
240
100
AcDbEntity
  8
M0
  6
CONTINUOUS
370
13
100
AcDbLine
 10
176.766721
 20
72.112346
 11
176.766721
 21
62.097535
  0
LINE
  5
241
100
AcDbEntity
  8
M0
  6
CONTINUOUS
370
13
100
AcDbLine
 10
183.083736
 20
72.112346
 11
176.766721
 21
72.112346
  0
LINE
  5
242
100
AcDbEntity
  8
M0
  6
CONTINUOUS
370
13
100
AcDbLine
 10
178.977674
 20
67.10494
 11
180.872781
 21
67.10494
  0
LINE
  5
243
100
AcDbEntity
  8
M0
  6
CONTINUOUS
370
13
100
AcDbLine
 10
176.766721
 20
62.097535
 11
183.083736
 21
62.097535
  0
LINE
  5
244
100
AcDbEntity
  8
M0
  6
DASHED
370
13
100
AcDbLine
 10
71.023757
 20
46.888537
 11
71.023757
 21
19.65234
  0
LINE
  5
245
100
AcDbEntity
  8
M0
  6
CONTINUOUS
370
13
100
AcDbLine
 10
69.579868
 20
18.930395
 11
72.467646
 21
18.930395
  0
LINE
  5
246
100
AcDbEntity
  8
M0
  6
CONTINUOUS
370
13
100
AcDbLine
 10
71.745702
 20
18.101882
 11
70.301812
 21
18.101882
  0
LINE
  5
247
100
AcDbEntity
  8
M0
  6
CONTINUOUS
370
13
100
AcDbLine
 10
71.023757
 20
46.888537
 11
74.785167
 21
39.533423
  0
LINE
  5
248
100
AcDbEntity
  8
M0
  6
CONTINUOUS
370
13
100
AcDbLine
 10
71.023757
 20
24.705952
 11
71.023757
 21
22.540118
  0
LINE
  5
249
100
AcDbEntity
  8
M0
  6
CONTINUOUS
370
13
100
AcDbLine
 10
68.857923
 20
19.65234
 11
73.189591
 21
19.65234
  0
LINE
  5
24A
100
AcDbEntity
  8
M0
  6
CONTINUOUS
370
13
100
AcDbLine
 10
270.086054
 20
196.199754
 11
394.194122
 21
196.199754
  0
LINE
  5
24B
100
AcDbEntity
  8
M0
  6
CONTINUOUS
370
13
100
AcDbLine
 10
270.086054
 20
196.199754
 11
270.086054
 21
117.090622
  0
LINE
  5
24C
100
AcDbEntity
  8
M0
  6
CONTINUOUS
370
13
100
AcDbLine
 10
270.086054
 20
117.090622
 11
394.194122
 21
117.090622
  0
LINE
  5
24D
100
AcDbEntity
  8
M0
  6
CONTINUOUS
370
13
100
AcDbLine
 10
85.564553
 20
70.263448
 11
151.847134
 21
70.263448
  0
LINE
  5
24E
100
AcDbEntity
  8
M0
  6
CONTINUOUS
370
13
100
AcDbLine
 10
84.932852
 20
67.105967
 11
151.847134
 21
67.105967
  0
LINE
  5
24F
100
AcDbEntity
  8
M0
  6
CONTINUOUS
370
13
100
AcDbLine
 10
79.392801
 20
70.263448
 11
84.313764
 21
70.263448
  0
LINE
  5
250
100
AcDbEntity
  8
M0
  6
CONTINUOUS
370
13
100
AcDbLine
 10
152.478835
 20
63.945407
 11
177.714272
 21
63.945407
  0
LINE
  5
251
100
AcDbEntity
  8
M0
  6
CONTINUOUS
370
13
100
AcDbLine
 10
153.110536
 20
70.262422
 11
177.714272
 21
70.262422
  0
LINE
  5
252
100
AcDbEntity
  8
M0
  6
CONTINUOUS
370
13
100
AcDbLine
 10
153.110537
 20
67.10494
 11
177.714273
 21
67.10494
  0
CIRCLE
  5
253
100
AcDbEntity
  8
M0
  6
CONTINUOUS
370
13
100
AcDbCircle
 10
211.843822
 20
67.10494
 40
0.631702
  0
CIRCLE
  5
254
100
AcDbEntity
  8
M0
  6
CONTINUOUS
370
13
100
AcDbCircle
 10
211.843822
 20
63.946433
 40
0.631702
  0
CIRCLE
  5
255
100
AcDbEntity
  8
M0
  6
CONTINUOUS
370
13
100
AcDbCircle
 10
215.00233
 20
63.947459
 40
0.631702
  0
CIRCLE
  5
256
100
AcDbEntity
  8
M0
  6
CONTINUOUS
370
13
100
AcDbCircle
 10
215.00233
 20
70.264474
 40
0.631702
  0
CIRCLE
  5
257
100
AcDbEntity
  8
M0
  6
CONTINUOUS
370
13
100
AcDbCircle
 10
215.00233
 20
67.105967
 40
0.631702
  0
CIRCLE
  5
258
100
AcDbEntity
  8
M0
  6
CONTINUOUS
370
13
100
AcDbCircle
 10
211.843822
 20
70.263448
 40
0.631702
  0
CIRCLE
  5
259
100
AcDbEntity
  8
M0
  6
CONTINUOUS
370
13
100
AcDbCircle
 10
181.504482
 20
67.10494
 40
0.631702
  0
CIRCLE
  5
25A
100
AcDbEntity
  8
M0
  6
CONTINUOUS
370
13
100
AcDbCircle
 10
181.504482
 20
70.263448
 40
0.631702
  0
CIRCLE
  5
25B
100
AcDbEntity
  8
M0
  6
CONTINUOUS
370
13
100
AcDbCircle
 10
178.345974
 20
63.945407
 40
0.631702
  0
CIRCLE
  5
25C
100
AcDbEntity
  8
M0
  6
CONTINUOUS
370
13
100
AcDbCircle
 10
178.345974
 20
70.262422
 40
0.631702
  0
CIRCLE
  5
25D
100
AcDbEntity
  8
M0
  6
CONTINUOUS
370
13
100
AcDbCircle
 10
181.504482
 20
63.946433
 40
0.631702
  0
CIRCLE
  5
25E
100
AcDbEntity
  8
M0
  6
CONTINUOUS
370
13
100
AcDbCircle
 10
178.345974
 20
67.103914
 40
0.631702
  0
CIRCLE
  5
25F
100
AcDbEntity
  8
M0
  6
CONTINUOUS
370
13
100
AcDbCircle
 10
71.023757
 20
47.610481
 40
0.721945
  0
ARC
  5
260
100
AcDbEntity
  8
M0
  6
CONTINUOUS
370
13
100
AcDbCircle
 10
84.932852
 20
70.263448
 40
0.631702
100
AcDbArc
 50
0.0
 51
180.0
  0
ARC
  5
261
100
AcDbEntity
  8
M0
  6
CONTINUOUS
370
13
100
AcDbCircle
 10
152.478835
 20
67.10494
 40
0.631702
100
AcDbArc
 50
0.0
 51
180.0
  0
ARC
  5
262
100
AcDbEntity
  8
M0
  6
CONTINUOUS
370
13
100
AcDbCircle
 10
152.478835
 20
70.263448
 40
0.631702
100
AcDbArc
 50
0.0
 51
180.0
  0
TEXT
  5
263
100
AcDbEntity
  8
M0
100
AcDbText
 10
208.371894
 20
51.365458
 40
2.9376
  1
ヒートポンプユニット
 41
0.694444
  7
STANDARD
100
AcDbText
  0
TEXT
  5
264
100
AcDbEntity
  8
M0
100
AcDbText
 10
217.052471
 20
67.105952
 40
2.105672
  1
白
 41
0.833333
  7
STANDARD
100
AcDbText
  0
TEXT
  5
265
100
AcDbEntity
  8
M0
100
AcDbText
 10
217.052471
 20
70.26446
 40
2.105672
  1
黒
 41
0.833333
  7
STANDARD
100
AcDbText
  0
TEXT
  5
266
100
AcDbEntity
  8
M0
100
AcDbText
 10
217.052471
 20
63.947451
 40
2.105672
  1
赤
 41
0.833333
  7
STANDARD
100
AcDbText
  0
TEXT
  5
267
100
AcDbEntity
  8
M0
100
AcDbText
 10
174.721552
 20
67.104937
 40
2.105672
  1
白
 41
0.833333
  7
STANDARD
100
AcDbText
  0
TEXT
  5
268
100
AcDbEntity
  8
M0
100
AcDbText
 10
174.721552
 20
63.946429
 40
2.105672
  1
赤
 41
0.833333
  7
STANDARD
100
AcDbText
  0
TEXT
  5
269
100
AcDbEntity
  8
M0
100
AcDbText
 10
174.721552
 20
70.263438
 40
2.105672
  1
黒
 41
0.833333
  7
STANDARD
100
AcDbText
  0
TEXT
  5
26A
100
AcDbEntity
  8
M0
100
AcDbText
 10
68.73915
 20
41.603562
 40
3.13344
  1
ア
 41
0.645833
  7
STANDARD
100
AcDbText
  0
TEXT
  5
26B
100
AcDbEntity
  8
M0
100
AcDbText
 10
68.73915
 20
37.347306
 40
3.13344
  1
｜
 41
0.645833
  7
STANDARD
100
AcDbText
  0
TEXT
  5
26C
100
AcDbEntity
  8
M0
100
AcDbText
 10
68.73915
 20
33.09105
 40
3.13344
  1
ス
 41
0.645833
  7
STANDARD
100
AcDbText
  0
TEXT
  5
26D
100
AcDbEntity
  8
M0
100
AcDbText
 10
68.73915
 20
28.834795
 40
3.13344
  1
　
 41
0.645833
  7
STANDARD
100
AcDbText
  0
TEXT
  5
26E
100
AcDbEntity
  8
M0
100
AcDbText
 10
73.387542
 20
35.800149
 40
3.13344
  1
ア
 41
0.645833
  7
STANDARD
100
AcDbText
  0
TEXT
  5
26F
100
AcDbEntity
  8
M0
100
AcDbText
 10
73.387542
 20
31.543893
 40
3.13344
  1
｜
 41
0.645833
  7
STANDARD
100
AcDbText
  0
TEXT
  5
270
100
AcDbEntity
  8
M0
100
AcDbText
 10
73.387542
 20
27.287637
 40
3.13344
  1
ス
 41
0.645833
  7
STANDARD
100
AcDbText
  0
TEXT
  5
271
100
AcDbEntity
  8
M0
100
AcDbText
 10
73.387542
 20
23.031381
 40
3.13344
  1
端
 41
0.645833
  7
STANDARD
100
AcDbText
  0
TEXT
  5
272
100
AcDbEntity
  8
M0
100
AcDbText
 10
73.387542
 20
18.775126
 40
3.13344
  1
子
 41
0.645833
  7
STANDARD
100
AcDbText
  0
TEXT
  5
273
100
AcDbEntity
  8
M0
100
AcDbText
 10
64.9194
 20
19.621746
 40
2.707292
  1
）
 50
270.000001
 41
0.713333
  7
STANDARD
100
AcDbText
  0
TEXT
  5
274
100
AcDbEntity
  8
M0
100
AcDbText
 10
65.129393
 20
41.603562
 40
3.13344
  1
　
 41
0.645833
  7
STANDARD
100
AcDbText
  0
TEXT
  5
275
100
AcDbEntity
  8
M0
100
AcDbText
 10
65.129393
 20
37.347306
 40
3.13344
  1
　
 41
0.645833
  7
STANDARD
100
AcDbText
  0
TEXT
  5
276
100
AcDbEntity
  8
M0
100
AcDbText
 10
65.129393
 20
33.09105
 40
3.13344
  1
現
 41
0.645833
  7
STANDARD
100
AcDbText
  0
TEXT
  5
277
100
AcDbEntity
  8
M0
100
AcDbText
 10
65.129393
 20
28.834795
 40
3.13344
  1
地
 41
0.645833
  7
STANDARD
100
AcDbText
  0
TEXT
  5
278
100
AcDbEntity
  8
M0
100
AcDbText
 10
65.129393
 20
24.578539
 40
3.13344
  1
工
 41
0.645833
  7
STANDARD
100
AcDbText
  0
TEXT
  5
279
100
AcDbEntity
  8
M0
100
AcDbText
 10
65.129393
 20
20.322283
 40
3.13344
  1
事
 41
0.645833
  7
STANDARD
100
AcDbText
  0
TEXT
  5
27A
100
AcDbEntity
  8
M0
100
AcDbText
 10
65.129393
 20
16.066028
 40
3.13344
  1
　
 41
0.645833
  7
STANDARD
100
AcDbText
  0
TEXT
  5
27B
100
AcDbEntity
  8
M0
100
AcDbText
 10
64.549664
 20
38.46117
 40
2.707292
  1
（
 50
270.000001
 41
0.713333
  7
STANDARD
100
AcDbText
  0
LINE
  5
27C
100
AcDbEntity
  8
M0
  6
CONTINUOUS
370
13
100
AcDbLine
 10
270.852341
 20
189.936158
 11
304.981204
 21
189.936158
  0
TEXT
  5
27D
100
AcDbEntity
  8
M0
100
AcDbText
 10
271.318373
 20
190.24259
 40
3.06432
  1
ディップスイッチの設定
 41
0.833333
  7
STANDARD
100
AcDbText
  0
TEXT
  5
27E
100
AcDbEntity
  8
M0
100
AcDbText
 10
208.371894
 20
73.877207
 40
2.9376
  1
ヒートポンプ側端子台
 41
0.694444
  7
STANDARD
100
AcDbText
  0
TEXT
  5
27F
100
AcDbEntity
  8
M0
100
AcDbText
 10
170.520918
 20
57.502688
 40
2.9376
  1
ヒートポンプ用
 41
0.694444
  7
STANDARD
100
AcDbText
  0
TEXT
  5
280
100
AcDbEntity
  8
M0
100
AcDbText
 10
170.520916
 20
53.390047
 40
2.9376
  1
接続端子台
 41
0.694444
  7
STANDARD
100
AcDbText
  0
LINE
  5
281
100
AcDbEntity
  8
M0
  6
CONTINUOUS
370
13
100
AcDbLine
 10
270.852341
 20
135.416224
 11
280.466648
 21
135.416224
  0
TEXT
  5
282
100
AcDbEntity
  8
M0
100
AcDbText
 10
271.318373
 20
135.722656
 40
3.06432
  1
ＬＥＤ
 41
0.833333
  7
STANDARD
100
AcDbText
  0
LINE
  5
283
100
AcDbEntity
  8
M0
  6
CONTINUOUS
370
13
100
AcDbLine
 10
69.734393
 20
108.783129
 11
68.852959
 21
107.020261
  0
LINE
  5
284
100
AcDbEntity
  8
M0
  6
CONTINUOUS
370
13
100
AcDbLine
 10
66.208656
 20
108.783129
 11
73.26013
 21
108.783129
  0
LINE
  5
285
100
AcDbEntity
  8
M0
  6
CONTINUOUS
370
13
100
AcDbLine
 10
71.497261
 20
108.783129
 11
70.615827
 21
107.020261
  0
LINE
  5
286
100
AcDbEntity
  8
M0
  6
CONTINUOUS
370
13
100
AcDbLine
 10
67.971525
 20
108.783129
 11
67.09009
 21
107.020261
  0
LINE
  5
287
100
AcDbEntity
  8
M0
  6
CONTINUOUS
370
13
100
AcDbLine
 10
152.478835
 20
97.86858
 11
152.478835
 21
63.946433
  0
LINE
  5
288
100
AcDbEntity
  8
M0
  6
CONTINUOUS
370
13
 62
     7
100
AcDbLine
 10
288.767741
 20
167.087149
 11
288.767741
 21
182.294351
  0
LINE
  5
289
100
AcDbEntity
  8
M0
  6
CONTINUOUS
370
13
 62
     7
100
AcDbLine
 10
275.890321
 20
173.361691
 11
275.890321
 21
171.204189
  0
LINE
  5
28A
100
AcDbEntity
  8
M0
  6
CONTINUOUS
370
13
 62
     7
100
AcDbLine
 10
285.446201
 20
170.738305
 11
285.446201
 21
176.712924
  0
LINE
  5
28B
100
AcDbEntity
  8
M0
  6
CONTINUOUS
370
13
 62
     7
100
AcDbLine
 10
282.126969
 20
176.712924
 11
284.118508
 21
176.712924
  0
LINE
  5
28C
100
AcDbEntity
  8
M0
  6
CONTINUOUS
370
13
 62
     7
100
AcDbLine
 10
280.371285
 20
173.361691
 11
280.371285
 21
171.204189
  0
LINE
  5
28D
100
AcDbEntity
  8
M0
  6
CONTINUOUS
370
13
 62
     7
100
AcDbLine
 10
279.209554
 20
171.204189
 11
280.371285
 21
171.204189
  0
LINE
  5
28E
100
AcDbEntity
  8
M0
  6
CONTINUOUS
370
13
 62
     7
100
AcDbLine
 10
288.767741
 20
182.294351
 11
274.16081
 21
182.294351
  0
LINE
  5
28F
100
AcDbEntity
  8
M0
  6
CONTINUOUS
370
13
 62
     7
100
AcDbLine
 10
279.209554
 20
173.361691
 11
279.209554
 21
171.204189
  0
LINE
  5
290
100
AcDbEntity
  8
M0
  6
CONTINUOUS
370
13
 62
     7
100
AcDbLine
 10
282.528786
 20
171.204189
 11
283.690518
 21
171.204189
  0
LINE
  5
291
100
AcDbEntity
  8
M0
  6
CONTINUOUS
370
13
 62
     7
100
AcDbLine
 10
282.528786
 20
173.361691
 11
283.690518
 21
173.361691
  0
LINE
  5
292
100
AcDbEntity
  8
M0
  6
CONTINUOUS
370
13
 62
     7
100
AcDbLine
 10
282.528786
 20
173.361691
 11
282.528786
 21
171.204189
  0
LINE
  5
293
100
AcDbEntity
  8
M0
  6
CONTINUOUS
370
13
 62
     7
100
AcDbLine
 10
283.690518
 20
173.361691
 11
283.690518
 21
171.204189
  0
LINE
  5
294
100
AcDbEntity
  8
M0
  6
CONTINUOUS
370
13
 62
     7
100
AcDbLine
 10
277.052053
 20
173.361691
 11
277.052053
 21
171.204189
  0
LINE
  5
295
100
AcDbEntity
  8
M0
  6
CONTINUOUS
370
13
 62
     7
100
AcDbLine
 10
279.209554
 20
173.361691
 11
280.371285
 21
173.361691
  0
LINE
  5
296
100
AcDbEntity
  8
M0
  6
CONTINUOUS
370
13
 62
     7
100
AcDbLine
 10
280.799276
 20
170.738305
 11
280.799276
 21
176.712924
  0
LINE
  5
297
100
AcDbEntity
  8
M0
  6
CONTINUOUS
370
13
 62
     7
100
AcDbLine
 10
274.16081
 20
167.087149
 11
288.767741
 21
167.087149
  0
LINE
  5
298
100
AcDbEntity
  8
M0
  6
CONTINUOUS
370
13
 62
     7
100
AcDbLine
 10
275.488503
 20
170.738305
 11
277.480043
 21
170.738305
  0
LINE
  5
299
100
AcDbEntity
  8
M0
  6
CONTINUOUS
370
13
 62
     7
100
AcDbLine
 10
284.118508
 20
170.738305
 11
284.118508
 21
176.712924
  0
LINE
  5
29A
100
AcDbEntity
  8
M0
  6
CONTINUOUS
370
13
 62
     7
100
AcDbLine
 10
278.807736
 20
170.738305
 11
278.807736
 21
176.712924
  0
LINE
  5
29B
100
AcDbEntity
  8
M0
  6
CONTINUOUS
370
13
 62
     7
100
AcDbLine
 10
285.446201
 20
173.725614
 11
287.437741
 21
173.725614
  0
LINE
  5
29C
100
AcDbEntity
  8
M0
  6
CONTINUOUS
370
13
 62
     7
100
AcDbLine
 10
285.446201
 20
176.712924
 11
287.437741
 21
176.712924
  0
LINE
  5
29D
100
AcDbEntity
  8
M0
  6
CONTINUOUS
370
13
 62
     7
100
AcDbLine
 10
282.126969
 20
170.738305
 11
282.126969
 21
176.712924
  0
LINE
  5
29E
100
AcDbEntity
  8
M0
  6
CONTINUOUS
370
13
 62
     7
100
AcDbLine
 10
275.488503
 20
176.712924
 11
277.480043
 21
176.712924
  0
LINE
  5
29F
100
AcDbEntity
  8
M0
  6
CONTINUOUS
370
13
 62
     7
100
AcDbLine
 10
274.16081
 20
182.294351
 11
274.16081
 21
167.087149
  0
LINE
  5
2A0
100
AcDbEntity
  8
M0
  6
CONTINUOUS
370
13
 62
     7
100
AcDbLine
 10
278.807736
 20
176.712924
 11
280.799276
 21
176.712924
  0
LINE
  5
2A1
100
AcDbEntity
  8
M0
  6
CONTINUOUS
370
13
 62
     7
100
AcDbLine
 10
275.890321
 20
173.361691
 11
277.052053
 21
173.361691
  0
LINE
  5
2A2
100
AcDbEntity
  8
M0
  6
CONTINUOUS
370
13
 62
     7
100
AcDbLine
 10
277.480043
 20
170.738305
 11
277.480043
 21
176.712924
  0
LINE
  5
2A3
100
AcDbEntity
  8
M0
  6
CONTINUOUS
370
13
 62
     7
100
AcDbLine
 10
287.437741
 20
170.738305
 11
287.437741
 21
176.712924
  0
LINE
  5
2A4
100
AcDbEntity
  8
M0
  6
CONTINUOUS
370
13
 62
     7
100
AcDbLine
 10
275.890321
 20
171.204189
 11
277.052053
 21
171.204189
  0
LINE
  5
2A5
100
AcDbEntity
  8
M0
  6
CONTINUOUS
370
13
 62
     7
100
AcDbLine
 10
275.488503
 20
170.738305
 11
275.488503
 21
176.712924
  0
LINE
  5
2A6
100
AcDbEntity
  8
M0
  6
CONTINUOUS
370
13
 62
     7
100
AcDbLine
 10
282.126969
 20
170.738305
 11
284.118508
 21
170.738305
  0
LINE
  5
2A7
100
AcDbEntity
  8
M0
  6
CONTINUOUS
370
13
 62
     7
100
AcDbLine
 10
285.446201
 20
170.738305
 11
287.437741
 21
170.738305
  0
LINE
  5
2A8
100
AcDbEntity
  8
M0
  6
CONTINUOUS
370
13
 62
     7
100
AcDbLine
 10
278.807736
 20
170.738305
 11
280.799276
 21
170.738305
  0
LINE
  5
2A9
100
AcDbEntity
  8
M0
  6
CONTINUOUS
370
13
 62
     7
100
AcDbLine
 10
285.848019
 20
173.361691
 11
285.848019
 21
171.204189
  0
LINE
  5
2AA
100
AcDbEntity
  8
M0
  6
CONTINUOUS
370
13
 62
     7
100
AcDbLine
 10
287.00975
 20
173.361691
 11
287.00975
 21
171.204189
  0
LINE
  5
2AB
100
AcDbEntity
  8
M0
  6
CONTINUOUS
370
13
 62
     7
100
AcDbLine
 10
285.848019
 20
171.204189
 11
287.00975
 21
171.204189
  0
LINE
  5
2AC
100
AcDbEntity
  8
M0
  6
CONTINUOUS
370
13
 62
     7
100
AcDbLine
 10
285.848019
 20
173.361691
 11
287.00975
 21
173.361691
  0
LINE
  5
2AD
100
AcDbEntity
  8
M0
  6
CONTINUOUS
370
13
 62
     7
100
AcDbLine
 10
282.126969
 20
173.725614
 11
284.118508
 21
173.725614
  0
LINE
  5
2AE
100
AcDbEntity
  8
M0
  6
CONTINUOUS
370
13
 62
     7
100
AcDbLine
 10
278.795236
 20
173.719771
 11
280.786776
 21
173.719771
  0
LINE
  5
2AF
100
AcDbEntity
  8
M0
  6
CONTINUOUS
370
13
 62
     7
100
AcDbLine
 10
275.488503
 20
173.725614
 11
277.480043
 21
173.725614
  0
TEXT
  5
2B0
100
AcDbEntity
  8
M0
 62
     7
100
AcDbText
 10
285.5701
 20
176.707079
 40
2.619344
  1
４
 41
0.645833
  7
STANDARD
100
AcDbText
  0
TEXT
  5
2B1
100
AcDbEntity
  8
M0
 62
     7
100
AcDbText
 10
275.677323
 20
176.684466
 40
2.619344
  1
１
 41
0.645833
  7
STANDARD
100
AcDbText
  0
TEXT
  5
2B2
100
AcDbEntity
  8
M0
 62
     7
100
AcDbText
 10
274.760743
 20
179.377062
 40
2.619344
  1
ＯＮ
 41
0.645833
  7
STANDARD
100
AcDbText
  0
TEXT
  5
2B3
100
AcDbEntity
  8
M0
 62
     7
100
AcDbText
 10
282.250871
 20
176.707079
 40
2.619344
  1
３
 41
0.645833
  7
STANDARD
100
AcDbText
  0
TEXT
  5
2B4
100
AcDbEntity
  8
M0
 62
     7
100
AcDbText
 10
274.538292
 20
184.276343
 40
2.910382
  1
＜ＳＷ１＞
 41
0.645833
  7
STANDARD
100
AcDbText
  0
TEXT
  5
2B5
100
AcDbEntity
  8
M0
 62
     7
100
AcDbText
 10
278.931657
 20
176.707079
 40
2.619344
  1
２
 41
0.645833
  7
STANDARD
100
AcDbText
  0
LINE
  5
2B6
100
AcDbEntity
  8
M0
  6
CONTINUOUS
370
13
 62
     7
100
AcDbLine
 10
298.144598
 20
162.699754
 11
390.124122
 21
162.699754
  0
LINE
  5
2B7
100
AcDbEntity
  8
M0
  6
CONTINUOUS
370
13
 62
     7
100
AcDbLine
 10
349.227529
 20
146.699754
 11
349.227529
 21
178.699754
  0
LINE
  5
2B8
100
AcDbEntity
  8
M0
  6
CONTINUOUS
370
13
 62
     7
100
AcDbLine
 10
298.144598
 20
170.699754
 11
390.124122
 21
170.699754
  0
LINE
  5
2B9
100
AcDbEntity
  8
M0
  6
CONTINUOUS
370
13
 62
     7
100
AcDbLine
 10
344.13436
 20
154.699754
 11
390.124122
 21
154.699754
  0
LINE
  5
2BA
100
AcDbEntity
  8
M0
  6
CONTINUOUS
370
13
 62
     7
100
AcDbLine
 10
349.227529
 20
150.699754
 11
390.124122
 21
150.699754
  0
LINE
  5
2BB
100
AcDbEntity
  8
M0
  6
CONTINUOUS
370
13
 62
     7
100
AcDbLine
 10
303.237766
 20
166.699754
 11
344.13436
 21
166.699754
  0
LINE
  5
2BC
100
AcDbEntity
  8
M0
  6
CONTINUOUS
370
13
 62
     7
100
AcDbLine
 10
368.387404
 20
160.699753
 11
376.421956
 21
160.699753
  0
LINE
  5
2BD
100
AcDbEntity
  8
M0
  6
CONTINUOUS
370
13
 62
     7
100
AcDbLine
 10
357.23108
 20
146.699754
 11
357.23108
 21
178.699754
  0
LINE
  5
2BE
100
AcDbEntity
  8
M0
  6
CONTINUOUS
370
13
 62
     7
100
AcDbLine
 10
368.387404
 20
152.699753
 11
376.421956
 21
152.699753
  0
LINE
  5
2BF
100
AcDbEntity
  8
M0
  6
CONTINUOUS
370
13
 62
     7
100
AcDbLine
 10
349.227529
 20
174.699754
 11
390.124122
 21
174.699754
  0
LINE
  5
2C0
100
AcDbEntity
  8
M0
  6
CONTINUOUS
370
13
 62
     7
100
AcDbLine
 10
298.144598
 20
146.699754
 11
390.124122
 21
146.699754
  0
LINE
  5
2C1
100
AcDbEntity
  8
M0
  6
CONTINUOUS
370
13
 62
     7
100
AcDbLine
 10
303.237766
 20
158.699754
 11
344.13436
 21
158.699754
  0
LINE
  5
2C2
100
AcDbEntity
  8
M0
  6
CONTINUOUS
370
13
 62
     7
100
AcDbLine
 10
303.237766
 20
146.699754
 11
303.237766
 21
178.699754
  0
LINE
  5
2C3
100
AcDbEntity
  8
M0
  6
CONTINUOUS
370
13
 62
     7
100
AcDbLine
 10
298.144598
 20
178.699754
 11
298.144598
 21
146.699754
  0
LINE
  5
2C4
100
AcDbEntity
  8
M0
  6
CONTINUOUS
370
13
 62
     7
100
AcDbLine
 10
298.144598
 20
154.699754
 11
344.13436
 21
154.699754
  0
LINE
  5
2C5
100
AcDbEntity
  8
M0
  6
CONTINUOUS
370
13
 62
     7
100
AcDbLine
 10
322.397642
 20
176.699753
 11
330.432194
 21
176.699753
  0
LINE
  5
2C6
100
AcDbEntity
  8
M0
  6
CONTINUOUS
370
13
 62
     7
100
AcDbLine
 10
303.237766
 20
174.699754
 11
344.13436
 21
174.699754
  0
LINE
  5
2C7
100
AcDbEntity
  8
M0
  6
CONTINUOUS
370
13
 62
     7
100
AcDbLine
 10
311.241317
 20
146.699754
 11
311.241317
 21
178.699754
  0
LINE
  5
2C8
100
AcDbEntity
  8
M0
  6
CONTINUOUS
370
13
 62
     7
100
AcDbLine
 10
390.124122
 20
178.699754
 11
390.124122
 21
146.699754
  0
LINE
  5
2C9
100
AcDbEntity
  8
M0
  6
CONTINUOUS
370
13
 62
     7
100
AcDbLine
 10
303.237766
 20
150.699754
 11
344.13436
 21
150.699754
  0
LINE
  5
2CA
100
AcDbEntity
  8
M0
  6
CONTINUOUS
370
13
 62
     7
100
AcDbLine
 10
298.144598
 20
178.699754
 11
390.124122
 21
178.699754
  0
LINE
  5
2CB
100
AcDbEntity
  8
M0
  6
CONTINUOUS
370
13
 62
     7
100
AcDbLine
 10
349.227529
 20
158.699754
 11
390.124122
 21
158.699754
  0
LINE
  5
2CC
100
AcDbEntity
  8
M0
  6
CONTINUOUS
370
13
 62
     7
100
AcDbLine
 10
349.227529
 20
166.699754
 11
390.124122
 21
166.699754
  0
LINE
  5
2CD
100
AcDbEntity
  8
M0
  6
CONTINUOUS
370
13
 62
     7
100
AcDbLine
 10
344.13436
 20
178.699754
 11
344.13436
 21
146.699754
  0
LINE
  5
2CE
100
AcDbEntity
  8
M0
  6
CONTINUOUS
370
13
 62
     7
100
AcDbLine
 10
368.387404
 20
176.699753
 11
376.421956
 21
176.699753
  0
LINE
  5
2CF
100
AcDbEntity
  8
M0
  6
CONTINUOUS
370
13
 62
     7
100
AcDbLine
 10
368.387404
 20
168.699753
 11
376.421956
 21
168.699753
  0
LINE
  5
2D0
100
AcDbEntity
  8
M0
  6
CONTINUOUS
370
13
 62
     7
100
AcDbLine
 10
322.397642
 20
168.699753
 11
330.432194
 21
168.699753
  0
LINE
  5
2D1
100
AcDbEntity
  8
M0
  6
CONTINUOUS
370
13
 62
     7
100
AcDbLine
 10
322.397642
 20
160.699753
 11
330.432194
 21
160.699753
  0
LINE
  5
2D2
100
AcDbEntity
  8
M0
  6
CONTINUOUS
370
13
 62
     7
100
AcDbLine
 10
322.397642
 20
152.699753
 11
330.432194
 21
152.699753
  0
TEXT
  5
2D3
100
AcDbEntity
  8
M0
 62
     7
100
AcDbText
 10
300.008115
 20
165.244572
 40
2.910382
  1
２
 41
0.625
  7
STANDARD
100
AcDbText
  0
TEXT
  5
2D4
100
AcDbEntity
  8
M0
 62
     7
100
AcDbText
 10
300.008115
 20
173.244566
 40
2.910382
  1
１
 41
0.625
  7
STANDARD
100
AcDbText
  0
TEXT
  5
2D5
100
AcDbEntity
  8
M0
 62
     7
100
AcDbText
 10
300.008115
 20
157.244572
 40
2.910382
  1
３
 41
0.625
  7
STANDARD
100
AcDbText
  0
TEXT
  5
2D6
100
AcDbEntity
  8
M0
 62
     7
100
AcDbText
 10
345.997868
 20
149.244568
 40
2.910382
  1
８
 41
0.625
  7
STANDARD
100
AcDbText
  0
TEXT
  5
2D7
100
AcDbEntity
  8
M0
 62
     7
100
AcDbText
 10
350.252416
 20
167.244557
 40
2.910382
  1
Ｏ　Ｎ
 41
0.625
  7
STANDARD
100
AcDbText
  0
TEXT
  5
2D8
100
AcDbEntity
  8
M0
 62
     7
100
AcDbText
 10
350.252416
 20
159.244557
 40
2.910382
  1
Ｏ　Ｎ
 41
0.625
  7
STANDARD
100
AcDbText
  0
TEXT
  5
2D9
100
AcDbEntity
  8
M0
 62
     7
100
AcDbText
 10
300.008115
 20
149.244553
 40
2.910382
  1
４
 41
0.625
  7
STANDARD
100
AcDbText
  0
TEXT
  5
2DA
100
AcDbEntity
  8
M0
 62
     7
100
AcDbText
 10
350.252416
 20
147.244568
 40
2.910382
  1
ＯＦＦ
 41
0.625
  7
STANDARD
100
AcDbText
  0
TEXT
  5
2DB
100
AcDbEntity
  8
M0
 62
     7
100
AcDbText
 10
350.252416
 20
171.244551
 40
2.910382
  1
ＯＦＦ
 41
0.625
  7
STANDARD
100
AcDbText
  0
TEXT
  5
2DC
100
AcDbEntity
  8
M0
 62
     7
100
AcDbText
 10
304.262662
 20
159.244572
 40
2.910382
  1
Ｏ　Ｎ
 41
0.625
  7
STANDARD
100
AcDbText
  0
TEXT
  5
2DD
100
AcDbEntity
  8
M0
 62
     7
100
AcDbText
 10
304.262662
 20
155.244557
 40
2.910382
  1
ＯＦＦ
 41
0.625
  7
STANDARD
100
AcDbText
  0
TEXT
  5
2DE
100
AcDbEntity
  8
M0
 62
     7
100
AcDbText
 10
345.997868
 20
157.244572
 40
2.910382
  1
７
 41
0.625
  7
STANDARD
100
AcDbText
  0
TEXT
  5
2DF
100
AcDbEntity
  8
M0
 62
     7
100
AcDbText
 10
345.997868
 20
165.244557
 40
2.910382
  1
６
 41
0.625
  7
STANDARD
100
AcDbText
  0
TEXT
  5
2E0
100
AcDbEntity
  8
M0
 62
     7
100
AcDbText
 10
345.997868
 20
173.244551
 40
2.910382
  1
５
 41
0.625
  7
STANDARD
100
AcDbText
  0
TEXT
  5
2E1
100
AcDbEntity
  8
M0
 62
     7
100
AcDbText
 10
350.252416
 20
175.244551
 40
2.910382
  1
Ｏ　Ｎ
 41
0.625
  7
STANDARD
100
AcDbText
  0
TEXT
  5
2E2
100
AcDbEntity
  8
M0
 62
     7
100
AcDbText
 10
304.262662
 20
147.244553
 40
2.910382
  1
ＯＦＦ
 41
0.625
  7
STANDARD
100
AcDbText
  0
TEXT
  5
2E3
100
AcDbEntity
  8
M0
 62
     7
100
AcDbText
 10
304.262662
 20
175.244566
 40
2.910382
  1
Ｏ　Ｎ
 41
0.625
  7
STANDARD
100
AcDbText
  0
TEXT
  5
2E4
100
AcDbEntity
  8
M0
 62
     7
100
AcDbText
 10
304.262662
 20
163.244557
 40
2.910382
  1
ＯＦＦ
 41
0.625
  7
STANDARD
100
AcDbText
  0
TEXT
  5
2E5
100
AcDbEntity
  8
M0
 62
     7
100
AcDbText
 10
304.262662
 20
171.244551
 40
2.910382
  1
ＯＦＦ
 41
0.625
  7
STANDARD
100
AcDbText
  0
TEXT
  5
2E6
100
AcDbEntity
  8
M0
 62
     7
100
AcDbText
 10
304.262662
 20
167.244572
 40
2.910382
  1
Ｏ　Ｎ
 41
0.625
  7
STANDARD
100
AcDbText
  0
TEXT
  5
2E7
100
AcDbEntity
  8
M0
 62
     7
100
AcDbText
 10
350.252416
 20
155.244572
 40
2.910382
  1
ＯＦＦ
 41
0.625
  7
STANDARD
100
AcDbText
  0
TEXT
  5
2E8
100
AcDbEntity
  8
M0
 62
     7
100
AcDbText
 10
350.252416
 20
151.244568
 40
2.910382
  1
Ｏ　Ｎ
 41
0.625
  7
STANDARD
100
AcDbText
  0
TEXT
  5
2E9
100
AcDbEntity
  8
M0
 62
     7
100
AcDbText
 10
304.262662
 20
151.244568
 40
2.910382
  1
Ｏ　Ｎ
 41
0.625
  7
STANDARD
100
AcDbText
  0
TEXT
  5
2EA
100
AcDbEntity
  8
M0
 62
     7
100
AcDbText
 10
350.252416
 20
163.244557
 40
2.910382
  1
ＯＦＦ
 41
0.625
  7
STANDARD
100
AcDbText
  0
TEXT
  5
2EB
100
AcDbEntity
  8
M0
 62
     7
100
AcDbText
 10
312.879326
 20
171.086149
 40
2.910382
  1
標準（出荷時）
 41
0.645833
  7
STANDARD
100
AcDbText
  0
TEXT
  5
2EC
100
AcDbEntity
  8
M0
 62
     7
100
AcDbText
 10
312.879326
 20
163.086155
 40
2.910382
  1
標準（出荷時）
 41
0.645833
  7
STANDARD
100
AcDbText
  0
TEXT
  5
2ED
100
AcDbEntity
  8
M0
 62
     7
100
AcDbText
 10
312.879326
 20
155.086155
 40
2.910382
  1
標準（出荷時）
 41
0.645833
  7
STANDARD
100
AcDbText
  0
TEXT
  5
2EE
100
AcDbEntity
  8
M0
 62
     7
100
AcDbText
 10
312.879326
 20
147.086151
 40
2.910382
  1
標準（出荷時）
 41
0.645833
  7
STANDARD
100
AcDbText
  0
TEXT
  5
2EF
100
AcDbEntity
  8
M0
 62
     7
100
AcDbText
 10
358.869087
 20
171.086149
 40
2.910382
  1
標準（出荷時）
 41
0.645833
  7
STANDARD
100
AcDbText
  0
TEXT
  5
2F0
100
AcDbEntity
  8
M0
 62
     7
100
AcDbText
 10
358.869087
 20
163.086151
 40
2.910382
  1
標準（出荷時）
 41
0.645833
  7
STANDARD
100
AcDbText
  0
TEXT
  5
2F1
100
AcDbEntity
  8
M0
 62
     7
100
AcDbText
 10
358.869087
 20
155.086151
 40
2.910382
  1
標準（出荷時）
 41
0.645833
  7
STANDARD
100
AcDbText
  0
TEXT
  5
2F2
100
AcDbEntity
  8
M0
 62
     7
100
AcDbText
 10
358.869087
 20
147.086151
 40
2.910382
  1
標準（出荷時）
 41
0.645833
  7
STANDARD
100
AcDbText
  0
TEXT
  5
2F3
100
AcDbEntity
  8
M0
 62
     7
100
AcDbText
 10
280.553181
 20
128.962487
 40
2.910382
  1
消灯：電源ＯＦＦ
 41
0.625
  7
STANDARD
100
AcDbText
  0
TEXT
  5
2F4
100
AcDbEntity
  8
M0
 62
     7
100
AcDbText
 10
280.553181
 20
124.962471
 40
2.910382
  1
点灯：電源ＯＮ（通電中）
 41
0.625
  7
STANDARD
100
AcDbText
  0
TEXT
  5
2F5
100
AcDbEntity
  8
M0
 62
     7
100
AcDbText
 10
280.553181
 20
120.962487
 40
2.910382
  1
点滅：おしらせ表示表示中
 41
0.625
  7
STANDARD
100
AcDbText
  0
LINE
  5
2F6
100
AcDbEntity
  8
M0
  6
CONTINUOUS
370
13
 62
     7
100
AcDbLine
 10
288.767741
 20
143.047877
 11
288.767741
 21
158.255079
  0
LINE
  5
2F7
100
AcDbEntity
  8
M0
  6
CONTINUOUS
370
13
 62
     7
100
AcDbLine
 10
275.890321
 20
149.322419
 11
275.890321
 21
147.164917
  0
LINE
  5
2F8
100
AcDbEntity
  8
M0
  6
CONTINUOUS
370
13
 62
     7
100
AcDbLine
 10
285.446201
 20
146.699033
 11
285.446201
 21
152.673652
  0
LINE
  5
2F9
100
AcDbEntity
  8
M0
  6
CONTINUOUS
370
13
 62
     7
100
AcDbLine
 10
282.126969
 20
152.673652
 11
284.118508
 21
152.673652
  0
LINE
  5
2FA
100
AcDbEntity
  8
M0
  6
CONTINUOUS
370
13
 62
     7
100
AcDbLine
 10
280.371285
 20
149.322419
 11
280.371285
 21
147.164917
  0
LINE
  5
2FB
100
AcDbEntity
  8
M0
  6
CONTINUOUS
370
13
 62
     7
100
AcDbLine
 10
279.209554
 20
147.164917
 11
280.371285
 21
147.164917
  0
LINE
  5
2FC
100
AcDbEntity
  8
M0
  6
CONTINUOUS
370
13
 62
     7
100
AcDbLine
 10
288.767741
 20
158.255079
 11
274.16081
 21
158.255079
  0
LINE
  5
2FD
100
AcDbEntity
  8
M0
  6
CONTINUOUS
370
13
 62
     7
100
AcDbLine
 10
279.209554
 20
149.322419
 11
279.209554
 21
147.164917
  0
LINE
  5
2FE
100
AcDbEntity
  8
M0
  6
CONTINUOUS
370
13
 62
     7
100
AcDbLine
 10
282.528786
 20
147.164917
 11
283.690518
 21
147.164917
  0
LINE
  5
2FF
100
AcDbEntity
  8
M0
  6
CONTINUOUS
370
13
 62
     7
100
AcDbLine
 10
282.528786
 20
149.322419
 11
283.690518
 21
149.322419
  0
LINE
  5
300
100
AcDbEntity
  8
M0
  6
CONTINUOUS
370
13
 62
     7
100
AcDbLine
 10
282.528786
 20
149.322419
 11
282.528786
 21
147.164917
  0
LINE
  5
301
100
AcDbEntity
  8
M0
  6
CONTINUOUS
370
13
 62
     7
100
AcDbLine
 10
283.690518
 20
149.322419
 11
283.690518
 21
147.164917
  0
LINE
  5
302
100
AcDbEntity
  8
M0
  6
CONTINUOUS
370
13
 62
     7
100
AcDbLine
 10
277.052053
 20
149.322419
 11
277.052053
 21
147.164917
  0
LINE
  5
303
100
AcDbEntity
  8
M0
  6
CONTINUOUS
370
13
 62
     7
100
AcDbLine
 10
279.209554
 20
149.322419
 11
280.371285
 21
149.322419
  0
LINE
  5
304
100
AcDbEntity
  8
M0
  6
CONTINUOUS
370
13
 62
     7
100
AcDbLine
 10
280.799276
 20
146.699033
 11
280.799276
 21
152.673652
  0
LINE
  5
305
100
AcDbEntity
  8
M0
  6
CONTINUOUS
370
13
 62
     7
100
AcDbLine
 10
274.16081
 20
143.047877
 11
288.767741
 21
143.047877
  0
LINE
  5
306
100
AcDbEntity
  8
M0
  6
CONTINUOUS
370
13
 62
     7
100
AcDbLine
 10
275.488503
 20
146.699033
 11
277.480043
 21
146.699033
  0
LINE
  5
307
100
AcDbEntity
  8
M0
  6
CONTINUOUS
370
13
 62
     7
100
AcDbLine
 10
284.118508
 20
146.699033
 11
284.118508
 21
152.673652
  0
LINE
  5
308
100
AcDbEntity
  8
M0
  6
CONTINUOUS
370
13
 62
     7
100
AcDbLine
 10
278.807736
 20
146.699033
 11
278.807736
 21
152.673652
  0
LINE
  5
309
100
AcDbEntity
  8
M0
  6
CONTINUOUS
370
13
 62
     7
100
AcDbLine
 10
285.446201
 20
149.686342
 11
287.437741
 21
149.686342
  0
LINE
  5
30A
100
AcDbEntity
  8
M0
  6
CONTINUOUS
370
13
 62
     7
100
AcDbLine
 10
285.446201
 20
152.673652
 11
287.437741
 21
152.673652
  0
LINE
  5
30B
100
AcDbEntity
  8
M0
  6
CONTINUOUS
370
13
 62
     7
100
AcDbLine
 10
282.126969
 20
146.699033
 11
282.126969
 21
152.673652
  0
LINE
  5
30C
100
AcDbEntity
  8
M0
  6
CONTINUOUS
370
13
 62
     7
100
AcDbLine
 10
275.488503
 20
152.673652
 11
277.480043
 21
152.673652
  0
LINE
  5
30D
100
AcDbEntity
  8
M0
  6
CONTINUOUS
370
13
 62
     7
100
AcDbLine
 10
274.16081
 20
158.255079
 11
274.16081
 21
143.047877
  0
LINE
  5
30E
100
AcDbEntity
  8
M0
  6
CONTINUOUS
370
13
 62
     7
100
AcDbLine
 10
278.807736
 20
152.673652
 11
280.799276
 21
152.673652
  0
LINE
  5
30F
100
AcDbEntity
  8
M0
  6
CONTINUOUS
370
13
 62
     7
100
AcDbLine
 10
275.890321
 20
149.322419
 11
277.052053
 21
149.322419
  0
LINE
  5
310
100
AcDbEntity
  8
M0
  6
CONTINUOUS
370
13
 62
     7
100
AcDbLine
 10
277.480043
 20
146.699033
 11
277.480043
 21
152.673652
  0
LINE
  5
311
100
AcDbEntity
  8
M0
  6
CONTINUOUS
370
13
 62
     7
100
AcDbLine
 10
287.437741
 20
146.699033
 11
287.437741
 21
152.673652
  0
LINE
  5
312
100
AcDbEntity
  8
M0
  6
CONTINUOUS
370
13
 62
     7
100
AcDbLine
 10
275.890321
 20
147.164917
 11
277.052053
 21
147.164917
  0
LINE
  5
313
100
AcDbEntity
  8
M0
  6
CONTINUOUS
370
13
 62
     7
100
AcDbLine
 10
275.488503
 20
146.699033
 11
275.488503
 21
152.673652
  0
LINE
  5
314
100
AcDbEntity
  8
M0
  6
CONTINUOUS
370
13
 62
     7
100
AcDbLine
 10
282.126969
 20
146.699033
 11
284.118508
 21
146.699033
  0
LINE
  5
315
100
AcDbEntity
  8
M0
  6
CONTINUOUS
370
13
 62
     7
100
AcDbLine
 10
285.446201
 20
146.699033
 11
287.437741
 21
146.699033
  0
LINE
  5
316
100
AcDbEntity
  8
M0
  6
CONTINUOUS
370
13
 62
     7
100
AcDbLine
 10
278.807736
 20
146.699033
 11
280.799276
 21
146.699033
  0
LINE
  5
317
100
AcDbEntity
  8
M0
  6
CONTINUOUS
370
13
 62
     7
100
AcDbLine
 10
282.126969
 20
149.686342
 11
284.118508
 21
149.686342
  0
LINE
  5
318
100
AcDbEntity
  8
M0
  6
CONTINUOUS
370
13
 62
     7
100
AcDbLine
 10
278.795236
 20
149.680498
 11
280.786776
 21
149.680498
  0
LINE
  5
319
100
AcDbEntity
  8
M0
  6
CONTINUOUS
370
13
 62
     7
100
AcDbLine
 10
275.488503
 20
149.686342
 11
277.480043
 21
149.686342
  0
LINE
  5
31A
100
AcDbEntity
  8
M0
  6
CONTINUOUS
370
13
 62
     7
100
AcDbLine
 10
285.848019
 20
149.322419
 11
285.848019
 21
147.164917
  0
LINE
  5
31B
100
AcDbEntity
  8
M0
  6
CONTINUOUS
370
13
 62
     7
100
AcDbLine
 10
287.00975
 20
149.322419
 11
287.00975
 21
147.164917
  0
LINE
  5
31C
100
AcDbEntity
  8
M0
  6
CONTINUOUS
370
13
 62
     7
100
AcDbLine
 10
285.848019
 20
147.164917
 11
287.00975
 21
147.164917
  0
LINE
  5
31D
100
AcDbEntity
  8
M0
  6
CONTINUOUS
370
13
 62
     7
100
AcDbLine
 10
285.848019
 20
149.322419
 11
287.00975
 21
149.322419
  0
TEXT
  5
31E
100
AcDbEntity
  8
M0
 62
     7
100
AcDbText
 10
285.5701
 20
152.667809
 40
2.619344
  1
８
 41
0.645833
  7
STANDARD
100
AcDbText
  0
TEXT
  5
31F
100
AcDbEntity
  8
M0
 62
     7
100
AcDbText
 10
275.677323
 20
152.645195
 40
2.619344
  1
５
 41
0.645833
  7
STANDARD
100
AcDbText
  0
TEXT
  5
320
100
AcDbEntity
  8
M0
 62
     7
100
AcDbText
 10
274.760743
 20
155.337792
 40
2.619344
  1
ＯＮ
 41
0.645833
  7
STANDARD
100
AcDbText
  0
TEXT
  5
321
100
AcDbEntity
  8
M0
 62
     7
100
AcDbText
 10
282.250871
 20
152.667809
 40
2.619344
  1
７
 41
0.645833
  7
STANDARD
100
AcDbText
  0
TEXT
  5
322
100
AcDbEntity
  8
M0
 62
     7
100
AcDbText
 10
278.931657
 20
152.667809
 40
2.619344
  1
６
 41
0.645833
  7
STANDARD
100
AcDbText
  0
TEXT
  5
323
100
AcDbEntity
  8
M0
 62
     7
100
AcDbText
 10
274.538292
 20
160.237068
 40
2.910382
  1
＜ＳＷ２＞
 41
0.645833
  7
STANDARD
100
AcDbText
  0
LINE
  5
324
100
AcDbEntity
  8
M0
  6
CONTINUOUS
370
13
 62
     7
100
AcDbLine
 10
100.443105
 20
109.152806
 11
185.329907
 21
109.152806
  0
LINE
  5
325
100
AcDbEntity
  8
M0
  6
CONTINUOUS
370
13
 62
     7
100
AcDbLine
 10
185.329907
 20
229.99215
 11
100.443105
 21
229.99215
  0
LINE
  5
326
100
AcDbEntity
  8
M0
  6
CONTINUOUS
370
13
 62
     7
100
AcDbLine
 10
185.329907
 20
109.152806
 11
185.329907
 21
229.99215
  0
LINE
  5
327
100
AcDbEntity
  8
M0
  6
CONTINUOUS
370
13
 62
     7
100
AcDbLine
 10
100.443105
 20
229.99215
 11
100.443105
 21
109.152806
  0
LINE
  5
328
100
AcDbEntity
  8
M0
  6
CONTINUOUS
370
13
 62
     7
100
AcDbLine
 10
106.488137
 20
177.42471
 11
102.724249
 21
177.42471
  0
LINE
  5
329
100
AcDbEntity
  8
M0
  6
CONTINUOUS
370
13
 62
     7
100
AcDbLine
 10
102.724249
 20
167.493171
 11
102.724249
 21
177.42471
  0
LINE
  5
32A
100
AcDbEntity
  8
M0
  6
CONTINUOUS
370
13
 62
     7
100
AcDbLine
 10
106.488137
 20
167.493171
 11
106.488137
 21
177.42471
  0
LINE
  5
32B
100
AcDbEntity
  8
M0
  6
CONTINUOUS
370
13
100
AcDbLine
 10
83.967923
 20
169.41471
 11
103.949224
 21
169.41471
  0
LINE
  5
32C
100
AcDbEntity
  8
M0
  6
CONTINUOUS
370
13
 62
     7
100
AcDbLine
 10
106.488137
 20
167.493171
 11
102.724249
 21
167.493171
  0
CIRCLE
  5
32D
100
AcDbEntity
  8
M0
  6
CONTINUOUS
370
13
100
AcDbCircle
 10
104.606193
 20
172.469814
 40
0.65697
  0
CIRCLE
  5
32E
100
AcDbEntity
  8
M0
  6
CONTINUOUS
370
13
100
AcDbCircle
 10
104.606193
 20
175.524918
 40
0.65697
  0
CIRCLE
  5
32F
100
AcDbEntity
  8
M0
  6
CONTINUOUS
370
13
100
AcDbCircle
 10
104.606193
 20
169.41471
 40
0.65697
  0
TEXT
  5
330
100
AcDbEntity
  8
M0
100
AcDbText
 10
106.488134
 20
177.479494
 40
2.688492
  1
ＣＮ３０１
 50
270.000001
 41
0.643939
  7
STANDARD
100
AcDbText
  0
TEXT
  5
331
100
AcDbEntity
  8
M0
100
AcDbText
 10
108.225805
 20
128.028468
 40
2.688492
  1
ＣＮ１
 50
270.000001
 41
0.643939
  7
STANDARD
100
AcDbText
  0
TEXT
  5
332
100
AcDbEntity
  8
M0
100
AcDbText
 10
106.351202
 20
229.079901
 40
2.688492
  1
ＣＮ１８
 50
270.000001
 41
0.643939
  7
STANDARD
100
AcDbText
  0
LINE
  5
333
100
AcDbEntity
  8
M0
  6
CONTINUOUS
370
13
 62
     7
100
AcDbLine
 10
102.724249
 20
116.281382
 11
107.856824
 21
116.281382
  0
LINE
  5
334
100
AcDbEntity
  8
M0
  6
CONTINUOUS
370
13
100
AcDbLine
 10
104.633567
 20
125.026574
 11
69.734393
 21
125.026574
  0
LINE
  5
335
100
AcDbEntity
  8
M0
  6
CONTINUOUS
370
13
 62
     7
100
AcDbLine
 10
102.724249
 20
134.789871
 11
102.724249
 21
116.281382
  0
LINE
  5
336
100
AcDbEntity
  8
M0
  6
CONTINUOUS
370
13
 62
     7
100
AcDbLine
 10
107.856824
 20
116.281382
 11
107.856824
 21
134.789871
  0
LINE
  5
337
100
AcDbEntity
  8
M0
  6
CONTINUOUS
370
13
 62
     7
100
AcDbLine
 10
102.724249
 20
134.789871
 11
107.856824
 21
134.789871
  0
CIRCLE
  5
338
100
AcDbEntity
  8
M0
  6
CONTINUOUS
370
13
100
AcDbCircle
 10
105.290537
 20
125.026574
 40
0.65697
  0
CIRCLE
  5
339
100
AcDbEntity
  8
M0
  6
CONTINUOUS
370
13
100
AcDbCircle
 10
105.290537
 20
117.923806
 40
0.65697
  0
CIRCLE
  5
33A
100
AcDbEntity
  8
M0
  6
CONTINUOUS
370
13
100
AcDbCircle
 10
105.290537
 20
121.47519
 40
0.65697
  0
CIRCLE
  5
33B
100
AcDbEntity
  8
M0
  6
CONTINUOUS
370
13
100
AcDbCircle
 10
105.290537
 20
132.129341
 40
0.65697
  0
CIRCLE
  5
33C
100
AcDbEntity
  8
M0
  6
CONTINUOUS
370
13
100
AcDbCircle
 10
105.290537
 20
128.577958
 40
0.65697
  0
LINE
  5
33D
100
AcDbEntity
  8
M0
  6
CONTINUOUS
370
13
 62
     7
100
AcDbLine
 10
184.310119
 20
212.849839
 11
184.310119
 21
227.787773
  0
LINE
  5
33E
100
AcDbEntity
  8
M0
  6
CONTINUOUS
370
13
 62
     7
100
AcDbLine
 10
184.310119
 20
212.849839
 11
181.914918
 21
212.849839
  0
LINE
  5
33F
100
AcDbEntity
  8
M0
  6
CONTINUOUS
370
13
 62
     7
100
AcDbLine
 10
181.914918
 20
212.849839
 11
181.914918
 21
227.787773
  0
LINE
  5
340
100
AcDbEntity
  8
M0
  6
CONTINUOUS
370
13
 62
     7
100
AcDbLine
 10
184.310119
 20
227.787773
 11
181.914918
 21
227.787773
  0
CIRCLE
  5
341
100
AcDbEntity
  8
M0
  6
CONTINUOUS
370
13
100
AcDbCircle
 10
183.112518
 20
214.24558
 40
0.65697
  0
CIRCLE
  5
342
100
AcDbEntity
  8
M0
  6
CONTINUOUS
370
13
100
AcDbCircle
 10
183.112518
 20
226.071032
 40
0.65697
  0
CIRCLE
  5
343
100
AcDbEntity
  8
M0
  6
CONTINUOUS
370
13
100
AcDbCircle
 10
183.112518
 20
222.129215
 40
0.65697
  0
CIRCLE
  5
344
100
AcDbEntity
  8
M0
  6
CONTINUOUS
370
13
100
AcDbCircle
 10
183.112518
 20
220.158306
 40
0.65697
  0
CIRCLE
  5
345
100
AcDbEntity
  8
M0
  6
CONTINUOUS
370
13
100
AcDbCircle
 10
183.112518
 20
216.216489
 40
0.65697
  0
CIRCLE
  5
346
100
AcDbEntity
  8
M0
  6
CONTINUOUS
370
13
100
AcDbCircle
 10
183.112518
 20
224.100124
 40
0.65697
  0
CIRCLE
  5
347
100
AcDbEntity
  8
M0
  6
CONTINUOUS
370
13
100
AcDbCircle
 10
183.112518
 20
218.187398
 40
0.65697
  0
LINE
  5
348
100
AcDbEntity
  8
M0
  6
CONTINUOUS
370
13
100
AcDbLine
 10
183.769488
 20
218.187398
 11
185.682634
 21
218.187398
  0
LINE
  5
349
100
AcDbEntity
  8
M0
  6
CONTINUOUS
370
13
100
AcDbLine
 10
187.517122
 20
214.992186
 11
189.770528
 21
217.245592
  0
LINE
  5
34A
100
AcDbEntity
  8
M0
  6
CONTINUOUS
370
13
100
AcDbLine
 10
183.769488
 20
216.216489
 11
193.156173
 21
216.216489
  0
LINE
  5
34B
100
AcDbEntity
  8
M0
  6
CONTINUOUS
370
13
100
AcDbLine
 10
188.718343
 20
214.992186
 11
190.971749
 21
217.245592
  0
LINE
  5
34C
100
AcDbEntity
  8
M0
  6
CONTINUOUS
370
13
100
AcDbLine
 10
186.339603
 20
215.559519
 11
186.339603
 21
214.90255
  0
LINE
  5
34D
100
AcDbEntity
  8
M0
  6
CONTINUOUS
370
13
100
AcDbLine
 10
183.769488
 20
214.24558
 11
185.682634
 21
214.24558
  0
LINE
  5
34E
100
AcDbEntity
  8
M0
  6
CONTINUOUS
370
13
100
AcDbLine
 10
189.919564
 20
214.992186
 11
192.17297
 21
217.245592
  0
LINE
  5
34F
100
AcDbEntity
  8
M0
  6
CONTINUOUS
370
13
100
AcDbLine
 10
186.339603
 20
216.873459
 11
186.339603
 21
217.530428
  0
CIRCLE
  5
350
100
AcDbEntity
  8
M0
  6
CONTINUOUS
370
13
100
AcDbCircle
 10
195.784052
 20
216.216489
 40
2.627878
  0
ARC
  5
351
100
AcDbEntity
  8
M0
  6
CONTINUOUS
370
13
100
AcDbCircle
 10
186.996573
 20
215.559519
 40
0.65697
100
AcDbArc
 50
90.0
 51
180.0
  0
ARC
  5
352
100
AcDbEntity
  8
M0
  6
CONTINUOUS
370
13
100
AcDbCircle
 10
186.996573
 20
216.873459
 40
0.65697
100
AcDbArc
 50
180.0
 51
270.0
  0
ARC
  5
353
100
AcDbEntity
  8
M0
  6
CONTINUOUS
370
13
100
AcDbCircle
 10
185.682634
 20
217.530428
 40
0.65697
100
AcDbArc
 50
0.0
 51
90.0
  0
ARC
  5
354
100
AcDbEntity
  8
M0
  6
CONTINUOUS
370
13
100
AcDbCircle
 10
185.682634
 20
214.90255
 40
0.65697
100
AcDbArc
 50
270.0
 51
360.0
  0
TEXT
  5
355
100
AcDbEntity
  8
M0
100
AcDbText
 10
199.386298
 20
214.383425
 40
3.666125
  1
給湯流量センサ（１系）
 50
1.001791E-005
 41
0.694444
  7
STANDARD
100
AcDbText
  0
LINE
  5
356
100
AcDbEntity
  8
M0
  6
CONTINUOUS
370
13
100
AcDbLine
 10
186.339603
 20
223.443154
 11
186.339603
 21
222.786185
  0
LINE
  5
357
100
AcDbEntity
  8
M0
  6
CONTINUOUS
370
13
100
AcDbLine
 10
183.769488
 20
224.100124
 11
193.170634
 21
224.100124
  0
LINE
  5
358
100
AcDbEntity
  8
M0
  6
CONTINUOUS
370
13
100
AcDbLine
 10
187.517122
 20
222.875821
 11
189.770528
 21
225.129227
  0
LINE
  5
359
100
AcDbEntity
  8
M0
  6
CONTINUOUS
370
13
100
AcDbLine
 10
189.919564
 20
222.875821
 11
192.17297
 21
225.129227
  0
LINE
  5
35A
100
AcDbEntity
  8
M0
  6
CONTINUOUS
370
13
100
AcDbLine
 10
183.769488
 20
222.129215
 11
185.682634
 21
222.129215
  0
LINE
  5
35B
100
AcDbEntity
  8
M0
  6
CONTINUOUS
370
13
100
AcDbLine
 10
183.769488
 20
226.071032
 11
185.682634
 21
226.071032
  0
LINE
  5
35C
100
AcDbEntity
  8
M0
  6
CONTINUOUS
370
13
100
AcDbLine
 10
188.718343
 20
222.875821
 11
190.971749
 21
225.129227
  0
LINE
  5
35D
100
AcDbEntity
  8
M0
  6
CONTINUOUS
370
13
100
AcDbLine
 10
186.339603
 20
224.757093
 11
186.339603
 21
225.414063
  0
CIRCLE
  5
35E
100
AcDbEntity
  8
M0
  6
CONTINUOUS
370
13
100
AcDbCircle
 10
195.798512
 20
224.099477
 40
2.627878
  0
ARC
  5
35F
100
AcDbEntity
  8
M0
  6
CONTINUOUS
370
13
100
AcDbCircle
 10
186.996573
 20
224.757093
 40
0.65697
100
AcDbArc
 50
180.0
 51
270.0
  0
ARC
  5
360
100
AcDbEntity
  8
M0
  6
CONTINUOUS
370
13
100
AcDbCircle
 10
186.996573
 20
223.443154
 40
0.65697
100
AcDbArc
 50
90.0
 51
180.0
  0
ARC
  5
361
100
AcDbEntity
  8
M0
  6
CONTINUOUS
370
13
100
AcDbCircle
 10
185.682634
 20
225.414063
 40
0.65697
100
AcDbArc
 50
0.0
 51
90.0
  0
ARC
  5
362
100
AcDbEntity
  8
M0
  6
CONTINUOUS
370
13
100
AcDbCircle
 10
185.682634
 20
222.786185
 40
0.65697
100
AcDbArc
 50
270.0
 51
360.0
  0
TEXT
  5
363
100
AcDbEntity
  8
M0
100
AcDbText
 10
199.386298
 20
222.266413
 40
3.666125
  1
給湯流量センサ（２系）
 50
1.001791E-005
 41
0.694444
  7
STANDARD
100
AcDbText
  0
TEXT
  5
364
100
AcDbEntity
  8
M0
100
AcDbText
 10
178.996741
 20
223.211363
 40
2.688492
  1
ＣＮ９
 50
270.000001
 41
0.643939
  7
STANDARD
100
AcDbText
  0
LINE
  5
365
100
AcDbEntity
  8
M0
  6
CONTINUOUS
370
13
 62
     7
100
AcDbLine
 10
128.829422
 20
228.256449
 11
128.829422
 21
221.939713
  0
LINE
  5
366
100
AcDbEntity
  8
M0
  6
CONTINUOUS
370
13
100
AcDbLine
 10
127.349117
 20
227.521745
 11
127.349117
 21
232.525607
  0
LINE
  5
367
100
AcDbEntity
  8
M0
  6
CONTINUOUS
370
13
100
AcDbLine
 10
121.874371
 20
233.307714
 11
124.241452
 21
233.307714
  0
LINE
  5
368
100
AcDbEntity
  8
M0
  6
CONTINUOUS
370
13
100
AcDbLine
 10
125.023559
 20
227.521745
 11
125.023559
 21
232.525607
  0
LINE
  5
369
100
AcDbEntity
  8
M0
  6
CONTINUOUS
370
13
100
AcDbLine
 10
122.635716
 20
227.521745
 11
122.635716
 21
232.525607
  0
LINE
  5
36A
100
AcDbEntity
  8
M0
  6
CONTINUOUS
370
13
100
AcDbLine
 10
110.924878
 20
227.521745
 11
110.924878
 21
232.525607
  0
LINE
  5
36B
100
AcDbEntity
  8
M0
  6
CONTINUOUS
370
13
 62
     7
100
AcDbLine
 10
109.337063
 20
228.256449
 11
109.337063
 21
221.939713
  0
LINE
  5
36C
100
AcDbEntity
  8
M0
  6
CONTINUOUS
370
13
100
AcDbLine
 10
114.032543
 20
233.307714
 11
111.706985
 21
233.307714
  0
LINE
  5
36D
100
AcDbEntity
  8
M0
  6
CONTINUOUS
370
13
 62
     7
100
AcDbLine
 10
128.829422
 20
228.256449
 11
109.337063
 21
228.256449
  0
LINE
  5
36E
100
AcDbEntity
  8
M0
  6
CONTINUOUS
370
13
100
AcDbLine
 10
118.762526
 20
233.307714
 11
118.725183
 21
233.307714
  0
LINE
  5
36F
100
AcDbEntity
  8
M0
  6
CONTINUOUS
370
13
100
AcDbLine
 10
118.745944
 20
233.307714
 11
116.420386
 21
233.307714
  0
LINE
  5
370
100
AcDbEntity
  8
M0
  6
CONTINUOUS
370
13
100
AcDbLine
 10
115.63828
 20
227.521745
 11
115.63828
 21
232.525607
  0
LINE
  5
371
100
AcDbEntity
  8
M0
  6
CONTINUOUS
370
13
100
AcDbLine
 10
116.378863
 20
233.307714
 11
114.053305
 21
233.307714
  0
LINE
  5
372
100
AcDbEntity
  8
M0
  6
CONTINUOUS
370
13
100
AcDbLine
 10
124.199929
 20
233.307714
 11
126.567011
 21
233.307714
  0
LINE
  5
373
100
AcDbEntity
  8
M0
  6
CONTINUOUS
370
13
100
AcDbLine
 10
113.271198
 20
227.521745
 11
113.271198
 21
232.525607
  0
LINE
  5
374
100
AcDbEntity
  8
M0
  6
CONTINUOUS
370
13
100
AcDbLine
 10
120.289396
 20
227.521745
 11
120.289396
 21
232.445888
  0
LINE
  5
375
100
AcDbEntity
  8
M0
  6
CONTINUOUS
370
13
100
AcDbLine
 10
119.511363
 20
233.307714
 11
121.853609
 21
233.307714
  0
LINE
  5
376
100
AcDbEntity
  8
M0
  6
CONTINUOUS
370
13
100
AcDbLine
 10
117.943076
 20
227.521745
 11
117.943076
 21
232.525607
  0
LINE
  5
377
100
AcDbEntity
  8
M0
  6
CONTINUOUS
370
13
100
AcDbLine
 10
121.895133
 20
217.215443
 11
124.220691
 21
217.215443
  0
LINE
  5
378
100
AcDbEntity
  8
M0
  6
CONTINUOUS
370
13
100
AcDbLine
 10
122.635716
 20
223.001411
 11
122.635716
 21
217.997549
  0
LINE
  5
379
100
AcDbEntity
  8
M0
  6
CONTINUOUS
370
13
100
AcDbLine
 10
125.002797
 20
223.001411
 11
125.002797
 21
217.997549
  0
LINE
  5
37A
100
AcDbEntity
  8
M0
  6
CONTINUOUS
370
13
100
AcDbLine
 10
119.511469
 20
217.215443
 11
119.548813
 21
217.215443
  0
LINE
  5
37B
100
AcDbEntity
  8
M0
  6
CONTINUOUS
370
13
100
AcDbLine
 10
124.241452
 20
217.215443
 11
126.567011
 21
217.215443
  0
LINE
  5
37C
100
AcDbEntity
  8
M0
  6
CONTINUOUS
370
13
100
AcDbLine
 10
114.074066
 20
217.215443
 11
111.706985
 21
217.215443
  0
LINE
  5
37D
100
AcDbEntity
  8
M0
  6
CONTINUOUS
370
13
100
AcDbLine
 10
120.330919
 20
223.001411
 11
120.330919
 21
217.997549
  0
LINE
  5
37E
100
AcDbEntity
  8
M0
  6
CONTINUOUS
370
13
100
AcDbLine
 10
117.984599
 20
223.001411
 11
117.984599
 21
218.077269
  0
LINE
  5
37F
100
AcDbEntity
  8
M0
  6
CONTINUOUS
370
13
100
AcDbLine
 10
119.528051
 20
217.215443
 11
121.853609
 21
217.215443
  0
LINE
  5
380
100
AcDbEntity
  8
M0
  6
CONTINUOUS
370
13
100
AcDbLine
 10
115.63828
 20
223.001411
 11
115.63828
 21
217.997549
  0
LINE
  5
381
100
AcDbEntity
  8
M0
  6
CONTINUOUS
370
13
100
AcDbLine
 10
113.250436
 20
223.001411
 11
113.250436
 21
217.997549
  0
LINE
  5
382
100
AcDbEntity
  8
M0
  6
CONTINUOUS
370
13
100
AcDbLine
 10
118.762633
 20
217.215443
 11
116.420386
 21
217.215443
  0
LINE
  5
383
100
AcDbEntity
  8
M0
  6
CONTINUOUS
370
13
100
AcDbLine
 10
110.924878
 20
223.001411
 11
110.924878
 21
217.997549
  0
LINE
  5
384
100
AcDbEntity
  8
M0
  6
CONTINUOUS
370
13
100
AcDbLine
 10
127.349117
 20
223.001411
 11
127.349117
 21
217.997549
  0
LINE
  5
385
100
AcDbEntity
  8
M0
  6
CONTINUOUS
370
13
100
AcDbLine
 10
116.399624
 20
217.215443
 11
114.032543
 21
217.215443
  0
LINE
  5
386
100
AcDbEntity
  8
M0
  6
CONTINUOUS
370
13
100
AcDbLine
 10
119.157759
 20
216.824389
 11
119.157759
 21
212.203654
  0
LINE
  5
387
100
AcDbEntity
  8
M0
  6
CONTINUOUS
370
13
100
AcDbLine
 10
106.136407
 20
248.822535
 11
103.883001
 21
246.56913
  0
CIRCLE
  5
388
100
AcDbEntity
  8
M0
  6
CONTINUOUS
370
13
100
AcDbCircle
 10
122.656477
 20
226.739639
 40
0.782107
  0
CIRCLE
  5
389
100
AcDbEntity
  8
M0
  6
CONTINUOUS
370
13
100
AcDbCircle
 10
120.310158
 20
226.739639
 40
0.782107
  0
CIRCLE
  5
38A
100
AcDbEntity
  8
M0
  6
CONTINUOUS
370
13
100
AcDbCircle
 10
125.002797
 20
226.739639
 40
0.782107
  0
CIRCLE
  5
38B
100
AcDbEntity
  8
M0
  6
CONTINUOUS
370
13
100
AcDbCircle
 10
127.349117
 20
226.739639
 40
0.782107
  0
CIRCLE
  5
38C
100
AcDbEntity
  8
M0
  6
CONTINUOUS
370
13
100
AcDbCircle
 10
110.924878
 20
226.739639
 40
0.782107
  0
CIRCLE
  5
38D
100
AcDbEntity
  8
M0
  6
CONTINUOUS
370
13
100
AcDbCircle
 10
115.617518
 20
226.739639
 40
0.782107
  0
CIRCLE
  5
38E
100
AcDbEntity
  8
M0
  6
CONTINUOUS
370
13
100
AcDbCircle
 10
113.271198
 20
226.739639
 40
0.782107
  0
CIRCLE
  5
38F
100
AcDbEntity
  8
M0
  6
CONTINUOUS
370
13
100
AcDbCircle
 10
117.963838
 20
226.739639
 40
0.782107
  0
ARC
  5
390
100
AcDbEntity
  8
M0
  6
CONTINUOUS
370
13
100
AcDbCircle
 10
111.706985
 20
232.525607
 40
0.782107
100
AcDbArc
 50
90.0
 51
180.0
  0
ARC
  5
391
100
AcDbEntity
  8
M0
  6
CONTINUOUS
370
13
100
AcDbCircle
 10
118.725183
 20
232.525607
 40
0.782107
100
AcDbArc
 50
90.0
 51
180.0
  0
ARC
  5
392
100
AcDbEntity
  8
M0
  6
CONTINUOUS
370
13
100
AcDbCircle
 10
118.725183
 20
233.698767
 40
0.391053
100
AcDbArc
 50
-90.0
 51
0.0
  0
ARC
  5
393
100
AcDbEntity
  8
M0
  6
CONTINUOUS
370
13
100
AcDbCircle
 10
119.511363
 20
233.698767
 40
0.391053
100
AcDbArc
 50
180.0
 51
270.0
  0
ARC
  5
394
100
AcDbEntity
  8
M0
  6
CONTINUOUS
370
13
100
AcDbCircle
 10
116.420386
 20
232.525607
 40
0.782107
100
AcDbArc
 50
90.0
 51
180.0
  0
ARC
  5
395
100
AcDbEntity
  8
M0
  6
CONTINUOUS
370
13
100
AcDbCircle
 10
119.511363
 20
232.525607
 40
0.782107
100
AcDbArc
 50
0.0
 51
90.0
  0
ARC
  5
396
100
AcDbEntity
  8
M0
  6
CONTINUOUS
370
13
100
AcDbCircle
 10
114.053305
 20
232.525607
 40
0.782107
100
AcDbArc
 50
90.0
 51
180.0
  0
ARC
  5
397
100
AcDbEntity
  8
M0
  6
CONTINUOUS
370
13
100
AcDbCircle
 10
124.241452
 20
232.525607
 40
0.782107
100
AcDbArc
 50
0.0
 51
90.0
  0
ARC
  5
398
100
AcDbEntity
  8
M0
  6
CONTINUOUS
370
13
100
AcDbCircle
 10
126.567011
 20
232.525607
 40
0.782107
100
AcDbArc
 50
0.0
 51
90.0
  0
ARC
  5
399
100
AcDbEntity
  8
M0
  6
CONTINUOUS
370
13
100
AcDbCircle
 10
121.853609
 20
232.525607
 40
0.782107
100
AcDbArc
 50
0.0
 51
90.0
  0
ARC
  5
39A
100
AcDbEntity
  8
M0
  6
CONTINUOUS
370
13
100
AcDbCircle
 10
114.032543
 20
217.997549
 40
0.782107
100
AcDbArc
 50
180.0
 51
270.0
  0
ARC
  5
39B
100
AcDbEntity
  8
M0
  6
CONTINUOUS
370
13
100
AcDbCircle
 10
116.420386
 20
217.997549
 40
0.782107
100
AcDbArc
 50
180.0
 51
270.0
  0
ARC
  5
39C
100
AcDbEntity
  8
M0
  6
CONTINUOUS
370
13
100
AcDbCircle
 10
111.706985
 20
217.997549
 40
0.782107
100
AcDbArc
 50
180.0
 51
270.0
  0
ARC
  5
39D
100
AcDbEntity
  8
M0
  6
CONTINUOUS
370
13
100
AcDbCircle
 10
121.853609
 20
217.997549
 40
0.782107
100
AcDbArc
 50
-90.0
 51
0.0
  0
ARC
  5
39E
100
AcDbEntity
  8
M0
  6
CONTINUOUS
370
13
100
AcDbCircle
 10
118.762633
 20
216.824389
 40
0.391053
100
AcDbArc
 50
0.0
 51
90.0
  0
ARC
  5
39F
100
AcDbEntity
  8
M0
  6
CONTINUOUS
370
13
100
AcDbCircle
 10
124.220691
 20
217.997549
 40
0.782107
100
AcDbArc
 50
-90.0
 51
0.0
  0
ARC
  5
3A0
100
AcDbEntity
  8
M0
  6
CONTINUOUS
370
13
100
AcDbCircle
 10
119.548813
 20
217.997549
 40
0.782107
100
AcDbArc
 50
-90.0
 51
0.0
  0
ARC
  5
3A1
100
AcDbEntity
  8
M0
  6
CONTINUOUS
370
13
100
AcDbCircle
 10
126.567011
 20
217.997549
 40
0.782107
100
AcDbArc
 50
-90.0
 51
0.0
  0
ARC
  5
3A2
100
AcDbEntity
  8
M0
  6
CONTINUOUS
370
13
100
AcDbCircle
 10
118.762633
 20
217.997549
 40
0.782107
100
AcDbArc
 50
180.0
 51
270.0
  0
ARC
  5
3A3
100
AcDbEntity
  8
M0
  6
CONTINUOUS
370
13
100
AcDbCircle
 10
119.548813
 20
216.824389
 40
0.391053
100
AcDbArc
 50
90.0
 51
180.0
  0
LINE
  5
3A4
100
AcDbEntity
  8
M0
  6
CONTINUOUS
370
13
100
AcDbLine
 10
106.136407
 20
252.538916
 11
103.883001
 21
250.285511
  0
LINE
  5
3A5
100
AcDbEntity
  8
M0
  6
CONTINUOUS
370
13
100
AcDbLine
 10
106.136407
 20
250.680726
 11
103.883001
 21
248.42732
  0
LINE
  5
3A6
100
AcDbEntity
  8
M0
  6
CONTINUOUS
370
13
100
AcDbLine
 10
106.136407
 20
243.247964
 11
103.883001
 21
240.994558
  0
LINE
  5
3A7
100
AcDbEntity
  8
M0
  6
CONTINUOUS
370
13
100
AcDbLine
 10
106.136407
 20
246.964345
 11
103.883001
 21
244.710939
  0
LINE
  5
3A8
100
AcDbEntity
  8
M0
  6
CONTINUOUS
370
13
100
AcDbLine
 10
106.136407
 20
245.106154
 11
103.883001
 21
242.852749
  0
LINE
  5
3A9
100
AcDbEntity
  8
M0
  6
CONTINUOUS
370
13
100
AcDbLine
 10
120.242939
 20
246.964345
 11
117.989533
 21
244.710939
  0
LINE
  5
3AA
100
AcDbEntity
  8
M0
  6
CONTINUOUS
370
13
100
AcDbLine
 10
120.242939
 20
252.538916
 11
117.989533
 21
250.285511
  0
LINE
  5
3AB
100
AcDbEntity
  8
M0
  6
CONTINUOUS
370
13
100
AcDbLine
 10
120.242939
 20
248.822535
 11
117.989533
 21
246.56913
  0
LINE
  5
3AC
100
AcDbEntity
  8
M0
  6
CONTINUOUS
370
13
100
AcDbLine
 10
120.242939
 20
250.680726
 11
117.989533
 21
248.42732
  0
LINE
  5
3AD
100
AcDbEntity
  8
M0
  6
CONTINUOUS
370
13
100
AcDbLine
 10
106.136407
 20
241.389773
 11
103.883001
 21
239.136368
  0
LINE
  5
3AE
100
AcDbEntity
  8
M0
  6
CONTINUOUS
370
13
100
AcDbLine
 10
106.136407
 20
239.531583
 11
103.883001
 21
237.278177
  0
LINE
  5
3AF
100
AcDbEntity
  8
M0
  6
CONTINUOUS
370
13
100
AcDbLine
 10
120.242939
 20
245.106154
 11
117.989533
 21
242.852749
  0
LINE
  5
3B0
100
AcDbEntity
  8
M0
  6
CONTINUOUS
370
13
100
AcDbLine
 10
120.242939
 20
243.247964
 11
117.989533
 21
240.994558
  0
LINE
  5
3B1
100
AcDbEntity
  8
M0
  6
CONTINUOUS
370
13
100
AcDbLine
 10
120.242939
 20
241.389773
 11
117.989533
 21
239.136368
  0
LINE
  5
3B2
100
AcDbEntity
  8
M0
  6
CONTINUOUS
370
13
100
AcDbLine
 10
120.242939
 20
239.531583
 11
117.989533
 21
237.278177
  0
LINE
  5
3B3
100
AcDbEntity
  8
M0
  6
CONTINUOUS
370
13
100
AcDbLine
 10
188.411477
 20
181.7248
 11
187.645027
 21
183.05233
  0
LINE
  5
3B4
100
AcDbEntity
  8
M0
  6
CONTINUOUS
370
13
100
AcDbLine
 10
191.860503
 20
182.388565
 11
191.477278
 21
181.7248
  0
LINE
  5
3B5
100
AcDbEntity
  8
M0
  6
CONTINUOUS
370
13
100
AcDbLine
 10
191.477278
 20
181.7248
 11
190.710828
 21
183.05233
  0
LINE
  5
3B6
100
AcDbEntity
  8
M0
  6
CONTINUOUS
370
13
100
AcDbLine
 10
189.944378
 20
181.7248
 11
189.177927
 21
183.05233
  0
LINE
  5
3B7
100
AcDbEntity
  8
M0
  6
CONTINUOUS
370
13
100
AcDbLine
 10
189.944378
 20
181.7248
 11
190.710828
 21
183.05233
  0
LINE
  5
3B8
100
AcDbEntity
  8
M0
  6
CONTINUOUS
370
13
100
AcDbLine
 10
188.411477
 20
181.7248
 11
189.177927
 21
183.05233
  0
LINE
  5
3B9
100
AcDbEntity
  8
M0
  6
CONTINUOUS
370
13
100
AcDbLine
 10
183.401735
 20
182.38624
 11
187.261802
 21
182.388565
  0
LINE
  5
3BA
100
AcDbEntity
  8
M0
  6
DIVIDE
370
13
100
AcDbLine
 10
191.860589
 20
183.308322
 11
187.261802
 21
183.308322
  0
LINE
  5
3BB
100
AcDbEntity
  8
M0
  6
CONTINUOUS
370
13
100
AcDbLine
 10
180.986983
 20
181.921695
 11
181.793908
 21
181.11477
  0
LINE
  5
3BC
100
AcDbEntity
  8
M0
  6
CONTINUOUS
370
13
100
AcDbLine
 10
181.793908
 20
181.11477
 11
194.159939
 21
181.11477
  0
LINE
  5
3BD
100
AcDbEntity
  8
M0
  6
CONTINUOUS
370
13
100
AcDbLine
 10
191.860503
 20
182.388565
 11
194.159939
 21
182.388565
  0
LINE
  5
3BE
100
AcDbEntity
  8
M0
  6
CONTINUOUS
370
13
100
AcDbLine
 10
187.261802
 20
182.388565
 11
187.645027
 21
183.05233
  0
LINE
  5
3BF
100
AcDbEntity
  8
M0
  6
DIVIDE
370
13
100
AcDbLine
 10
187.261802
 20
181.468807
 11
191.860589
 21
181.468807
  0
LINE
  5
3C0
100
AcDbEntity
  8
M0
  6
CONTINUOUS
370
13
100
AcDbLine
 10
194.159939
 20
181.11477
 11
194.159939
 21
182.388565
  0
CIRCLE
  5
3C1
100
AcDbEntity
  8
M0
  6
CONTINUOUS
370
13
100
AcDbCircle
 10
182.744761
 20
182.38624
 40
0.65697
  0
CIRCLE
  5
3C2
100
AcDbEntity
  8
M0
  6
CONTINUOUS
370
13
100
AcDbCircle
 10
180.522433
 20
182.38624
 40
0.65697
  0
ARC
  5
3C3
100
AcDbEntity
  8
M0
  6
DIVIDE
370
13
100
AcDbCircle
 10
191.860589
 20
182.388565
 40
0.919757
100
AcDbArc
 50
270.0
 51
450.0
  0
ARC
  5
3C4
100
AcDbEntity
  8
M0
  6
DIVIDE
370
13
100
AcDbCircle
 10
187.261802
 20
182.388565
 40
0.919757
100
AcDbArc
 50
90.0
 51
270.0
  0
CIRCLE
  5
3C5
100
AcDbEntity
  8
M0
  6
CONTINUOUS
370
13
100
AcDbCircle
 10
180.522433
 20
193.466584
 40
0.65697
  0
CIRCLE
  5
3C6
100
AcDbEntity
  8
M0
  6
CONTINUOUS
370
13
100
AcDbCircle
 10
182.744761
 20
193.466584
 40
0.65697
  0
LINE
  5
3C7
100
AcDbEntity
  8
M0
  6
CONTINUOUS
370
13
100
AcDbLine
 10
188.411477
 20
174.337904
 11
187.645027
 21
175.665434
  0
LINE
  5
3C8
100
AcDbEntity
  8
M0
  6
CONTINUOUS
370
13
100
AcDbLine
 10
191.860503
 20
175.001669
 11
191.477278
 21
174.337904
  0
LINE
  5
3C9
100
AcDbEntity
  8
M0
  6
CONTINUOUS
370
13
100
AcDbLine
 10
191.477278
 20
174.337904
 11
190.710828
 21
175.665434
  0
LINE
  5
3CA
100
AcDbEntity
  8
M0
  6
CONTINUOUS
370
13
100
AcDbLine
 10
189.944378
 20
174.337904
 11
189.177927
 21
175.665434
  0
LINE
  5
3CB
100
AcDbEntity
  8
M0
  6
CONTINUOUS
370
13
100
AcDbLine
 10
189.944378
 20
174.337904
 11
190.710828
 21
175.665434
  0
LINE
  5
3CC
100
AcDbEntity
  8
M0
  6
CONTINUOUS
370
13
100
AcDbLine
 10
188.411477
 20
174.337904
 11
189.177927
 21
175.665434
  0
LINE
  5
3CD
100
AcDbEntity
  8
M0
  6
CONTINUOUS
370
13
100
AcDbLine
 10
183.401735
 20
174.999344
 11
187.261802
 21
175.001669
  0
LINE
  5
3CE
100
AcDbEntity
  8
M0
  6
DIVIDE
370
13
100
AcDbLine
 10
191.860589
 20
175.921426
 11
187.261802
 21
175.921426
  0
LINE
  5
3CF
100
AcDbEntity
  8
M0
  6
CONTINUOUS
370
13
100
AcDbLine
 10
180.986983
 20
174.534799
 11
181.793908
 21
173.727874
  0
LINE
  5
3D0
100
AcDbEntity
  8
M0
  6
CONTINUOUS
370
13
100
AcDbLine
 10
181.793908
 20
173.727874
 11
194.159939
 21
173.727874
  0
LINE
  5
3D1
100
AcDbEntity
  8
M0
  6
CONTINUOUS
370
13
100
AcDbLine
 10
191.860503
 20
175.001669
 11
194.159939
 21
175.001669
  0
LINE
  5
3D2
100
AcDbEntity
  8
M0
  6
CONTINUOUS
370
13
100
AcDbLine
 10
187.261802
 20
175.001669
 11
187.645027
 21
175.665434
  0
LINE
  5
3D3
100
AcDbEntity
  8
M0
  6
DIVIDE
370
13
100
AcDbLine
 10
187.261802
 20
174.081912
 11
191.860589
 21
174.081912
  0
LINE
  5
3D4
100
AcDbEntity
  8
M0
  6
CONTINUOUS
370
13
100
AcDbLine
 10
194.159939
 20
173.727874
 11
194.159939
 21
175.001669
  0
CIRCLE
  5
3D5
100
AcDbEntity
  8
M0
  6
CONTINUOUS
370
13
100
AcDbCircle
 10
182.744761
 20
189.773136
 40
0.65697
  0
CIRCLE
  5
3D6
100
AcDbEntity
  8
M0
  6
CONTINUOUS
370
13
100
AcDbCircle
 10
180.522433
 20
189.773136
 40
0.65697
  0
ARC
  5
3D7
100
AcDbEntity
  8
M0
  6
DIVIDE
370
13
100
AcDbCircle
 10
191.860589
 20
175.001669
 40
0.919757
100
AcDbArc
 50
270.0
 51
450.0
  0
ARC
  5
3D8
100
AcDbEntity
  8
M0
  6
DIVIDE
370
13
100
AcDbCircle
 10
187.261802
 20
175.001669
 40
0.919757
100
AcDbArc
 50
90.0
 51
270.0
  0
LINE
  5
3D9
100
AcDbEntity
  8
M0
  6
CONTINUOUS
370
13
 62
     7
100
AcDbLine
 10
184.310119
 20
195.943865
 11
178.957075
 21
195.943865
  0
LINE
  5
3DA
100
AcDbEntity
  8
M0
  6
CONTINUOUS
370
13
 62
     7
100
AcDbLine
 10
178.957075
 20
195.943865
 11
178.957075
 21
172.522063
  0
LINE
  5
3DB
100
AcDbEntity
  8
M0
  6
CONTINUOUS
370
13
 62
     7
100
AcDbLine
 10
184.310119
 20
172.522063
 11
184.310119
 21
195.943865
  0
LINE
  5
3DC
100
AcDbEntity
  8
M0
  6
CONTINUOUS
370
13
 62
     7
100
AcDbLine
 10
178.957075
 20
172.522063
 11
184.310119
 21
172.522063
  0
LINE
  5
3DD
100
AcDbEntity
  8
M0
  6
CONTINUOUS
370
13
100
AcDbLine
 10
187.261802
 20
167.952059
 11
187.645027
 21
168.615824
  0
LINE
  5
3DE
100
AcDbEntity
  8
M0
  6
CONTINUOUS
370
13
100
AcDbLine
 10
181.793908
 20
166.678264
 11
194.159939
 21
166.678264
  0
LINE
  5
3DF
100
AcDbEntity
  8
M0
  6
DIVIDE
370
13
100
AcDbLine
 10
187.261802
 20
167.032302
 11
191.860589
 21
167.032302
  0
LINE
  5
3E0
100
AcDbEntity
  8
M0
  6
CONTINUOUS
370
13
100
AcDbLine
 10
194.159939
 20
166.678264
 11
194.159939
 21
167.952059
  0
LINE
  5
3E1
100
AcDbEntity
  8
M0
  6
CONTINUOUS
370
13
100
AcDbLine
 10
183.401735
 20
167.949734
 11
187.261802
 21
167.952059
  0
LINE
  5
3E2
100
AcDbEntity
  8
M0
  6
CONTINUOUS
370
13
100
AcDbLine
 10
180.986983
 20
167.485189
 11
181.793908
 21
166.678264
  0
LINE
  5
3E3
100
AcDbEntity
  8
M0
  6
CONTINUOUS
370
13
100
AcDbLine
 10
188.411477
 20
167.288294
 11
189.177927
 21
168.615824
  0
LINE
  5
3E4
100
AcDbEntity
  8
M0
  6
CONTINUOUS
370
13
100
AcDbLine
 10
189.944378
 20
167.288294
 11
189.177927
 21
168.615824
  0
LINE
  5
3E5
100
AcDbEntity
  8
M0
  6
CONTINUOUS
370
13
100
AcDbLine
 10
191.860503
 20
167.952059
 11
194.159939
 21
167.952059
  0
LINE
  5
3E6
100
AcDbEntity
  8
M0
  6
CONTINUOUS
370
13
100
AcDbLine
 10
191.860503
 20
167.952059
 11
191.477278
 21
167.288294
  0
LINE
  5
3E7
100
AcDbEntity
  8
M0
  6
CONTINUOUS
370
13
100
AcDbLine
 10
191.477278
 20
167.288294
 11
190.710828
 21
168.615824
  0
LINE
  5
3E8
100
AcDbEntity
  8
M0
  6
CONTINUOUS
370
13
100
AcDbLine
 10
189.944378
 20
167.288294
 11
190.710828
 21
168.615824
  0
LINE
  5
3E9
100
AcDbEntity
  8
M0
  6
DIVIDE
370
13
100
AcDbLine
 10
191.860589
 20
168.871816
 11
187.261802
 21
168.871816
  0
LINE
  5
3EA
100
AcDbEntity
  8
M0
  6
CONTINUOUS
370
13
100
AcDbLine
 10
188.411477
 20
167.288294
 11
187.645027
 21
168.615824
  0
CIRCLE
  5
3EB
100
AcDbEntity
  8
M0
  6
CONTINUOUS
370
13
100
AcDbCircle
 10
182.744761
 20
167.949734
 40
0.65697
  0
CIRCLE
  5
3EC
100
AcDbEntity
  8
M0
  6
CONTINUOUS
370
13
100
AcDbCircle
 10
180.522433
 20
167.949734
 40
0.65697
  0
ARC
  5
3ED
100
AcDbEntity
  8
M0
  6
DIVIDE
370
13
100
AcDbCircle
 10
191.860589
 20
167.952059
 40
0.919757
100
AcDbArc
 50
270.0
 51
450.0
  0
ARC
  5
3EE
100
AcDbEntity
  8
M0
  6
DIVIDE
370
13
100
AcDbCircle
 10
187.261802
 20
167.952059
 40
0.919757
100
AcDbArc
 50
90.0
 51
270.0
  0
TEXT
  5
3EF
100
AcDbEntity
  8
M0
 62
     7
100
AcDbText
 10
376.973926
 20
29.625511
 40
4.5
  1
配線図
 41
0.833333
  7
STANDARD
100
AcDbText
  0
TEXT
  5
3F0
100
AcDbEntity
  8
M0
 62
     7
100
AcDbText
 10
351.085931
 20
33.295622
 40
4.0
  1
ＲＨＫ－Ｔ５６ＥＤ１
 41
0.46875
  7
STANDARD
100
AcDbText
  0
TEXT
  5
3F1
100
AcDbEntity
  8
M0
 62
     7
100
AcDbText
 10
351.085931
 20
29.795622
 40
4.0
  1
ＲＨＫ－Ｔ５６ＥＤＥ１
 41
0.46875
  7
STANDARD
100
AcDbText
  0
TEXT
  5
3F2
100
AcDbEntity
  8
M0
 62
     7
100
AcDbText
 10
351.085931
 20
26.295622
 40
4.0
  1
ＲＨＫ－Ｔ５６ＥＤＪ１
 41
0.46875
  7
STANDARD
100
AcDbText
  0
TEXT
  5
3F3
100
AcDbEntity
  8
M69
100
AcDbText
 10
398.25
 20
4.0
 40
5.0
  1
００１
 41
0.5
  7
STANDARD
100
AcDbText
  0
TEXT
  5
3F4
100
AcDbEntity
  8
M71
100
AcDbText
 10
319.716667
 20
27.0
 40
5.0
  1
ＮＴＳ
 41
0.633333
  7
STANDARD
100
AcDbText
  0
TEXT
  5
3F5
100
AcDbEntity
  8
M73
100
AcDbText
 10
341.549988
 20
10.3
 40
5.5
  1
３ＹＤＡ
 41
0.454545
  7
STANDARD
100
AcDbText
  0
TEXT
  5
3F6
100
AcDbEntity
  8
M73
100
AcDbText
 10
354.558346
 20
10.0
 40
8.0
  1
ＢＢ００５３２２４
 41
0.447917
  7
STANDARD
100
AcDbText
  0
TEXT
  5
3F7
100
AcDbEntity
  8
M73
100
AcDbText
 10
72.558333
 20
286.799988
 40
8.0
  1
ＢＢ００５３２２４
 50
180.000005
 41
0.552083
  7
STANDARD
100
AcDbText
  0
CIRCLE
  5
3F8
100
AcDbEntity
  8
M74
  6
CONTINUOUS
370
25
100
AcDbCircle
 10
402.5
 20
17.5
 40
7.5
  0
TEXT
  5
3F9
100
AcDbEntity
  8
M74
100
AcDbText
 10
397.708333
 20
19.6
 40
3.0
  1
ＲＥＧＤ
 41
0.694444
  7
STANDARD
100
AcDbText
  0
TEXT
  5
3FA
100
AcDbEntity
  8
M74
100
AcDbText
 10
397.708333
 20
15.5
 40
3.0
  1
２０１６
 41
0.694444
  7
STANDARD
100
AcDbText
  0
TEXT
  5
3FB
100
AcDbEntity
  8
M74
100
AcDbText
 10
397.708333
 20
12.8
 40
3.0
  1
０４０８
 41
0.694444
  7
STANDARD
100
AcDbText
  0
TEXT
  5
3FC
100
AcDbEntity
  8
M75
100
AcDbText
 10
249.133333
 20
26.5
 40
4.0
  1
Ｍ．Ｏｓｏｄｏ
 41
0.333333
  7
STANDARD
100
AcDbText
  0
TEXT
  5
3FD
100
AcDbEntity
  8
M75
100
AcDbText
 10
275.666667
 20
26.5
 40
3.5
  1
２０１６－０４－０８
 41
0.47619
  7
STANDARD
100
AcDbText
  0
TEXT
  5
3FE
100
AcDbEntity
  8
M75
100
AcDbText
 10
249.133333
 20
21.0
 40
4.0
  1
Ｓ．Ｋａｔａｇｉｒｉ
 41
0.333333
  7
STANDARD
100
AcDbText
  0
TEXT
  5
3FF
100
AcDbEntity
  8
M75
100
AcDbText
 10
275.666667
 20
21.0
 40
3.5
  1
２０１６－０４－０８
 41
0.47619
  7
STANDARD
100
AcDbText
  0
TEXT
  5
400
100
AcDbEntity
  8
M75
100
AcDbText
 10
249.133333
 20
10.0
 40
4.0
  1
Ｓ．Ｋａｔａｇｉｒｉ
 41
0.333333
  7
STANDARD
100
AcDbText
  0
TEXT
  5
401
100
AcDbEntity
  8
M75
100
AcDbText
 10
275.666667
 20
10.0
 40
3.5
  1
２０１６－０４－０８
 41
0.47619
  7
STANDARD
100
AcDbText
  0
LINE
  5
402
100
AcDbEntity
  8
M79
  6
CONTINUOUS
370
25
 62
     7
100
AcDbLine
 10
25.0
 20
287.0
 11
410.0
 21
287.0
  0
LINE
  5
403
100
AcDbEntity
  8
M79
  6
CONTINUOUS
370
25
 62
     7
100
AcDbLine
 10
25.0
 20
10.0
 11
25.0
 21
287.0
  0
LINE
  5
404
100
AcDbEntity
  8
M79
  6
CONTINUOUS
370
25
 62
     7
100
AcDbLine
 10
410.0
 20
10.0
 11
410.0
 21
287.0
  0
LINE
  5
405
100
AcDbEntity
  8
M79
  6
CONTINUOUS
370
13
 62
     7
100
AcDbLine
 10
0.0
 20
148.5
 11
25.0
 21
148.5
  0
LINE
  5
406
100
AcDbEntity
  8
M79
  6
CONTINUOUS
370
13
 62
     7
100
AcDbLine
 10
410.0
 20
148.5
 11
420.0
 21
148.5
  0
LINE
  5
407
100
AcDbEntity
  8
M79
  6
CONTINUOUS
370
13
 62
     7
100
AcDbLine
 10
20.0
 20
98.5
 11
25.0
 21
98.5
  0
LINE
  5
408
100
AcDbEntity
  8
M79
  6
CONTINUOUS
370
13
 62
     7
100
AcDbLine
 10
20.0
 20
48.5
 11
25.0
 21
48.5
  0
LINE
  5
409
100
AcDbEntity
  8
M79
  6
CONTINUOUS
370
13
 62
     7
100
AcDbLine
 10
20.0
 20
198.5
 11
25.0
 21
198.5
  0
LINE
  5
40A
100
AcDbEntity
  8
M79
  6
CONTINUOUS
370
13
 62
     7
100
AcDbLine
 10
20.0
 20
248.5
 11
25.0
 21
248.5
  0
LINE
  5
40B
100
AcDbEntity
  8
M79
  6
CONTINUOUS
370
13
 62
     7
100
AcDbLine
 10
410.0
 20
98.5
 11
415.0
 21
98.5
  0
LINE
  5
40C
100
AcDbEntity
  8
M79
  6
CONTINUOUS
370
13
 62
     7
100
AcDbLine
 10
410.0
 20
48.5
 11
415.0
 21
48.5
  0
LINE
  5
40D
100
AcDbEntity
  8
M79
  6
CONTINUOUS
370
13
 62
     7
100
AcDbLine
 10
410.0
 20
198.5
 11
415.0
 21
198.5
  0
LINE
  5
40E
100
AcDbEntity
  8
M79
  6
CONTINUOUS
370
13
 62
     7
100
AcDbLine
 10
410.0
 20
248.5
 11
415.0
 21
248.5
  0
LINE
  5
40F
100
AcDbEntity
  8
M79
  6
CONTINUOUS
370
13
 62
     7
100
AcDbLine
 10
210.0
 20
0.0
 11
210.0
 21
10.0
  0
LINE
  5
410
100
AcDbEntity
  8
M79
  6
CONTINUOUS
370
13
 62
     7
100
AcDbLine
 10
160.0
 20
5.0
 11
160.0
 21
10.0
  0
LINE
  5
411
100
AcDbEntity
  8
M79
  6
CONTINUOUS
370
13
 62
     7
100
AcDbLine
 10
110.0
 20
5.0
 11
110.0
 21
10.0
  0
LINE
  5
412
100
AcDbEntity
  8
M79
  6
CONTINUOUS
370
13
 62
     7
100
AcDbLine
 10
60.0
 20
5.0
 11
60.0
 21
10.0
  0
LINE
  5
413
100
AcDbEntity
  8
M79
  6
CONTINUOUS
370
13
 62
     7
100
AcDbLine
 10
260.0
 20
5.0
 11
260.0
 21
10.0
  0
LINE
  5
414
100
AcDbEntity
  8
M79
  6
CONTINUOUS
370
13
 62
     7
100
AcDbLine
 10
310.0
 20
5.0
 11
310.0
 21
10.0
  0
LINE
  5
415
100
AcDbEntity
  8
M79
  6
CONTINUOUS
370
13
 62
     7
100
AcDbLine
 10
60.0
 20
287.0
 11
60.0
 21
292.0
  0
LINE
  5
416
100
AcDbEntity
  8
M79
  6
CONTINUOUS
370
13
 62
     7
100
AcDbLine
 10
110.0
 20
287.0
 11
110.0
 21
292.0
  0
LINE
  5
417
100
AcDbEntity
  8
M79
  6
CONTINUOUS
370
13
 62
     7
100
AcDbLine
 10
160.0
 20
287.0
 11
160.0
 21
292.0
  0
LINE
  5
418
100
AcDbEntity
  8
M79
  6
CONTINUOUS
370
13
 62
     7
100
AcDbLine
 10
210.0
 20
287.0
 11
210.0
 21
297.0
  0
LINE
  5
419
100
AcDbEntity
  8
M79
  6
CONTINUOUS
370
13
 62
     7
100
AcDbLine
 10
260.0
 20
287.0
 11
260.0
 21
292.0
  0
LINE
  5
41A
100
AcDbEntity
  8
M79
  6
CONTINUOUS
370
13
 62
     7
100
AcDbLine
 10
310.0
 20
287.0
 11
310.0
 21
292.0
  0
LINE
  5
41B
100
AcDbEntity
  8
M79
  6
CONTINUOUS
370
13
 62
     7
100
AcDbLine
 10
360.0
 20
287.0
 11
360.0
 21
292.0
  0
LINE
  5
41C
100
AcDbEntity
  8
M79
  6
CONTINUOUS
370
13
 62
     7
100
AcDbLine
 10
360.0
 20
5.0
 11
360.0
 21
10.0
  0
LINE
  5
41D
100
AcDbEntity
  8
M79
  6
CONTINUOUS
370
25
 62
     7
100
AcDbLine
 10
25.0
 20
274.0
 11
72.699997
 21
274.0
  0
LINE
  5
41E
100
AcDbEntity
  8
M79
  6
CONTINUOUS
370
13
 62
     7
100
AcDbLine
 10
170.0
 20
4.999999
 11
170.0
 21
9.999999
  0
LINE
  5
41F
100
AcDbEntity
  8
M79
  6
CONTINUOUS
370
13
 62
     7
100
AcDbLine
 10
180.0
 20
4.999999
 11
180.0
 21
9.999999
  0
LINE
  5
420
100
AcDbEntity
  8
M79
  6
CONTINUOUS
370
13
 62
     7
100
AcDbLine
 10
190.0
 20
4.999999
 11
190.0
 21
9.999999
  0
LINE
  5
421
100
AcDbEntity
  8
M79
  6
CONTINUOUS
370
13
 62
     7
100
AcDbLine
 10
200.0
 20
4.999999
 11
200.0
 21
9.999999
  0
LINE
  5
422
100
AcDbEntity
  8
M79
  6
CONTINUOUS
370
13
 62
     7
100
AcDbLine
 10
210.0
 20
4.999999
 11
210.0
 21
9.999999
  0
LINE
  5
423
100
AcDbEntity
  8
M79
  6
CONTINUOUS
370
13
 62
     7
100
AcDbLine
 10
220.0
 20
4.999999
 11
220.0
 21
9.999999
  0
LINE
  5
424
100
AcDbEntity
  8
M79
  6
CONTINUOUS
370
13
 62
     7
100
AcDbLine
 10
230.0
 20
4.999999
 11
230.0
 21
9.999999
  0
LINE
  5
425
100
AcDbEntity
  8
M79
  6
CONTINUOUS
370
13
 62
     7
100
AcDbLine
 10
240.0
 20
4.999999
 11
240.0
 21
9.999999
  0
LINE
  5
426
100
AcDbEntity
  8
M79
  6
CONTINUOUS
370
13
 62
     7
100
AcDbLine
 10
250.0
 20
4.999999
 11
250.0
 21
9.999999
  0
LINE
  5
427
100
AcDbEntity
  8
M79
  6
CONTINUOUS
370
13
 62
     7
100
AcDbLine
 10
162.0
 20
7.499207
 11
162.0
 21
9.999999
  0
LINE
  5
428
100
AcDbEntity
  8
M79
  6
CONTINUOUS
370
13
 62
     7
100
AcDbLine
 10
164.0
 20
7.498415
 11
164.0
 21
9.999999
  0
LINE
  5
429
100
AcDbEntity
  8
M79
  6
CONTINUOUS
370
13
 62
     7
100
AcDbLine
 10
166.0
 20
7.497622
 11
166.0
 21
9.999999
  0
LINE
  5
42A
100
AcDbEntity
  8
M79
  6
CONTINUOUS
370
13
 62
     7
100
AcDbLine
 10
168.0
 20
7.496831
 11
168.0
 21
9.999999
  0
LINE
  5
42B
100
AcDbEntity
  8
M79
  6
CONTINUOUS
370
13
 62
     7
100
AcDbLine
 10
175.0
 20
7.494059
 11
175.0
 21
9.999998
  0
LINE
  5
42C
100
AcDbEntity
  8
M79
  6
CONTINUOUS
370
13
 62
     7
100
AcDbLine
 10
185.0
 20
7.494058
 11
185.0
 21
9.999997
  0
LINE
  5
42D
100
AcDbEntity
  8
M79
  6
CONTINUOUS
370
13
 62
     7
100
AcDbLine
 10
195.0
 20
7.494058
 11
195.0
 21
9.999997
  0
LINE
  5
42E
100
AcDbEntity
  8
M79
  6
CONTINUOUS
370
13
 62
     7
100
AcDbLine
 10
205.0
 20
7.494058
 11
205.0
 21
9.999997
  0
LINE
  5
42F
100
AcDbEntity
  8
M79
  6
CONTINUOUS
370
13
 62
     7
100
AcDbLine
 10
215.0
 20
7.494058
 11
215.0
 21
9.999997
  0
LINE
  5
430
100
AcDbEntity
  8
M79
  6
CONTINUOUS
370
13
 62
     7
100
AcDbLine
 10
225.0
 20
7.494058
 11
225.0
 21
9.999997
  0
LINE
  5
431
100
AcDbEntity
  8
M79
  6
CONTINUOUS
370
13
 62
     7
100
AcDbLine
 10
235.0
 20
7.494058
 11
235.0
 21
9.999997
  0
LINE
  5
432
100
AcDbEntity
  8
M79
  6
CONTINUOUS
370
13
 62
     7
100
AcDbLine
 10
245.0
 20
7.494058
 11
245.0
 21
9.999997
  0
LINE
  5
433
100
AcDbEntity
  8
M79
  6
CONTINUOUS
370
13
 62
     7
100
AcDbLine
 10
255.0
 20
7.494058
 11
255.0
 21
9.999997
  0
LINE
  5
434
100
AcDbEntity
  8
M79
  6
CONTINUOUS
370
13
 62
     7
100
AcDbLine
 10
160.0
 20
5.0
 11
260.0
 21
4.960396
  0
TEXT
  5
435
100
AcDbEntity
  8
M79
 62
     7
100
AcDbText
 10
18.5
 20
270.0
 40
4.0
  1
Ａ
 41
1.25
  7
STANDARD
100
AcDbText
  0
TEXT
  5
436
100
AcDbEntity
  8
M79
 62
     7
100
AcDbText
 10
18.5
 20
220.0
 40
4.0
  1
Ｂ
 41
1.25
  7
STANDARD
100
AcDbText
  0
TEXT
  5
437
100
AcDbEntity
  8
M79
 62
     7
100
AcDbText
 10
18.5
 20
170.0
 40
4.0
  1
Ｃ
 41
1.25
  7
STANDARD
100
AcDbText
  0
TEXT
  5
438
100
AcDbEntity
  8
M79
 62
     7
100
AcDbText
 10
18.5
 20
120.0
 40
4.0
  1
Ｄ
 41
1.25
  7
STANDARD
100
AcDbText
  0
TEXT
  5
439
100
AcDbEntity
  8
M79
 62
     7
100
AcDbText
 10
18.5
 20
70.0
 40
4.0
  1
Ｅ
 41
1.25
  7
STANDARD
100
AcDbText
  0
TEXT
  5
43A
100
AcDbEntity
  8
M79
 62
     7
100
AcDbText
 10
18.5
 20
30.0
 40
4.0
  1
Ｆ
 41
1.25
  7
STANDARD
100
AcDbText
  0
TEXT
  5
43B
100
AcDbEntity
  8
M79
 62
     7
100
AcDbText
 10
411.5
 20
270.0
 40
4.0
  1
Ａ
 41
1.25
  7
STANDARD
100
AcDbText
  0
TEXT
  5
43C
100
AcDbEntity
  8
M79
 62
     7
100
AcDbText
 10
411.5
 20
220.0
 40
4.0
  1
Ｂ
 41
1.25
  7
STANDARD
100
AcDbText
  0
TEXT
  5
43D
100
AcDbEntity
  8
M79
 62
     7
100
AcDbText
 10
411.5
 20
170.0
 40
4.0
  1
Ｃ
 41
1.25
  7
STANDARD
100
AcDbText
  0
TEXT
  5
43E
100
AcDbEntity
  8
M79
 62
     7
100
AcDbText
 10
411.5
 20
120.0
 40
4.0
  1
Ｄ
 41
1.25
  7
STANDARD
100
AcDbText
  0
TEXT
  5
43F
100
AcDbEntity
  8
M79
 62
     7
100
AcDbText
 10
411.5
 20
70.0
 40
4.0
  1
Ｅ
 41
1.25
  7
STANDARD
100
AcDbText
  0
TEXT
  5
440
100
AcDbEntity
  8
M79
 62
     7
100
AcDbText
 10
39.5
 20
4.0
 40
4.0
  1
１
 41
1.25
  7
STANDARD
100
AcDbText
  0
TEXT
  5
441
100
AcDbEntity
  8
M79
 62
     7
100
AcDbText
 10
81.5
 20
4.0
 40
4.0
  1
２
 41
1.25
  7
STANDARD
100
AcDbText
  0
TEXT
  5
442
100
AcDbEntity
  8
M79
 62
     7
100
AcDbText
 10
131.5
 20
4.0
 40
4.0
  1
３
 41
1.25
  7
STANDARD
100
AcDbText
  0
TEXT
  5
443
100
AcDbEntity
  8
M79
 62
     7
100
AcDbText
 10
281.5
 20
4.0
 40
4.0
  1
６
 41
1.25
  7
STANDARD
100
AcDbText
  0
TEXT
  5
444
100
AcDbEntity
  8
M79
 62
     7
100
AcDbText
 10
331.5
 20
4.0
 40
4.0
  1
７
 41
1.25
  7
STANDARD
100
AcDbText
  0
TEXT
  5
445
100
AcDbEntity
  8
M79
 62
     7
100
AcDbText
 10
182.420563
 20
0.724621
 40
4.0
  1
４
 41
1.25
  7
STANDARD
100
AcDbText
  0
TEXT
  5
446
100
AcDbEntity
  8
M79
 62
     7
100
AcDbText
 10
232.487747
 20
0.621103
 40
4.0
  1
５
 41
1.25
  7
STANDARD
100
AcDbText
  0
TEXT
  5
447
100
AcDbEntity
  8
M79
 62
     7
100
AcDbText
 10
39.5
 20
289.0
 40
4.0
  1
１
 41
1.25
  7
STANDARD
100
AcDbText
  0
TEXT
  5
448
100
AcDbEntity
  8
M79
 62
     7
100
AcDbText
 10
81.5
 20
289.0
 40
4.0
  1
２
 41
1.25
  7
STANDARD
100
AcDbText
  0
TEXT
  5
449
100
AcDbEntity
  8
M79
 62
     7
100
AcDbText
 10
131.5
 20
289.0
 40
4.0
  1
３
 41
1.25
  7
STANDARD
100
AcDbText
  0
TEXT
  5
44A
100
AcDbEntity
  8
M79
 62
     7
100
AcDbText
 10
281.5
 20
289.0
 40
4.0
  1
６
 41
1.25
  7
STANDARD
100
AcDbText
  0
TEXT
  5
44B
100
AcDbEntity
  8
M79
 62
     7
100
AcDbText
 10
331.5
 20
289.0
 40
4.0
  1
７
 41
1.25
  7
STANDARD
100
AcDbText
  0
TEXT
  5
44C
100
AcDbEntity
  8
M79
 62
     7
100
AcDbText
 10
381.5
 20
289.0
 40
4.0
  1
８
 41
1.25
  7
STANDARD
100
AcDbText
  0
TEXT
  5
44D
100
AcDbEntity
  8
M79
 62
     7
100
AcDbText
 10
182.420563
 20
288.924561
 40
4.0
  1
４
 41
1.25
  7
STANDARD
100
AcDbText
  0
TEXT
  5
44E
100
AcDbEntity
  8
M79
 62
     7
100
AcDbText
 10
232.487747
 20
289.020996
 40
4.0
  1
５
 41
1.25
  7
STANDARD
100
AcDbText
  0
TEXT
  5
44F
100
AcDbEntity
  8
M79
 62
     7
100
AcDbText
 10
158.373433
 20
2.218226
 40
2.0
  1
０
 41
1.666667
  7
STANDARD
100
AcDbText
  0
TEXT
  5
450
100
AcDbEntity
  8
M79
 62
     7
100
AcDbText
 10
256.725179
 20
2.129498
 40
2.0
  1
１００
 41
0.916667
  7
STANDARD
100
AcDbText
  0
LINE
  5
451
100
AcDbEntity
  8
M79
  6
CONTINUOUS
370
25
 62
     7
100
AcDbLine
 10
72.699997
 20
287.0
 11
72.699997
 21
274.0
  0
LINE
  5
452
100
AcDbEntity
  8
M79
  6
CONTINUOUS
370
25
 62
     7
100
AcDbLine
 10
25.0
 20
10.0
 11
410.0
 21
10.0
  0
TEXT
  5
453
100
AcDbEntity
  8
M79
 62
     7
100
AcDbText
 10
241.246246
 20
27.470188
 40
2.5
  1
ＤＷＮ．
 41
0.5
  7
STANDARD
100
AcDbText
  0
TEXT
  5
454
100
AcDbEntity
  8
M79
 62
     7
100
AcDbText
 10
240.968414
 20
19.642731
 40
2.5
  1
ＣＨＫＤ．
 41
0.5
  7
STANDARD
100
AcDbText
  0
TEXT
  5
455
100
AcDbEntity
  8
M79
 62
     7
100
AcDbText
 10
240.867371
 20
11.237426
 40
2.5
  1
ＡＰＰＤ．
 41
0.5
  7
STANDARD
100
AcDbText
  0
TEXT
  5
456
100
AcDbEntity
  8
M79
 62
     7
100
AcDbText
 10
334.966502
 20
34.001312
 40
3.0
  1
ＴＩＴＬＥ
 41
0.555556
  7
STANDARD
100
AcDbText
  0
TEXT
  5
457
100
AcDbEntity
  8
M79
 62
     7
100
AcDbText
 10
342.164164
 20
22.153
 40
3.0
  1
ＴＯＣＨＩＧＩ　ＤＷＧ．　Ｎｏ．
 41
0.555556
  7
STANDARD
100
AcDbText
  0
TEXT
  5
458
100
AcDbEntity
  8
M79
 62
     7
100
AcDbText
 10
319.896495
 20
34.001312
 40
3.0
  1
ＳＣＡＬＥ
 41
0.555556
  7
STANDARD
100
AcDbText
  0
TEXT
  5
459
100
AcDbEntity
  8
M79
 62
     7
100
AcDbText
 10
411.5
 20
30.0
 40
4.0
  1
Ｆ
 41
1.25
  7
STANDARD
100
AcDbText
  0
LINE
  5
45A
100
AcDbEntity
  8
M79
  6
CONTINUOUS
370
25
 62
     7
100
AcDbLine
 10
240.0
 20
37.5
 11
410.0
 21
37.5
  0
LINE
  5
45B
100
AcDbEntity
  8
M79
  6
CONTINUOUS
370
13
 62
     7
100
AcDbLine
 10
298.0
 20
26.0
 11
410.0
 21
26.0
  0
LINE
  5
45C
100
AcDbEntity
  8
M79
  6
CONTINUOUS
370
13
 62
     7
100
AcDbLine
 10
334.0
 20
37.5
 11
334.0
 21
26.0
  0
LINE
  5
45D
100
AcDbEntity
  8
M79
  6
CONTINUOUS
370
13
 62
     7
100
AcDbLine
 10
316.0
 20
37.5
 11
316.0
 21
26.0
  0
LINE
  5
45E
100
AcDbEntity
  8
M79
  6
CONTINUOUS
370
13
 62
     7
100
AcDbLine
 10
395.0
 20
26.0
 11
395.0
 21
10.0
  0
LINE
  5
45F
100
AcDbEntity
  8
M79
  6
CONTINUOUS
370
13
 62
     7
100
AcDbLine
 10
298.0
 20
37.5
 11
298.0
 21
10.0
  0
LINE
  5
460
100
AcDbEntity
  8
M79
  6
CONTINUOUS
370
13
 62
     7
100
AcDbLine
 10
240.0
 20
26.5
 11
298.0
 21
26.5
  0
LINE
  5
461
100
AcDbEntity
  8
M79
  6
CONTINUOUS
370
13
 62
     7
100
AcDbLine
 10
248.0
 20
32.0
 11
248.0
 21
10.0
  0
LINE
  5
462
100
AcDbEntity
  8
M79
  6
CONTINUOUS
370
13
 62
     7
100
AcDbLine
 10
240.0
 20
32.0
 11
298.0
 21
32.0
  0
LINE
  5
463
100
AcDbEntity
  8
M79
  6
CONTINUOUS
370
25
 62
     7
100
AcDbLine
 10
240.0
 20
37.5
 11
240.0
 21
10.0
  0
LINE
  5
464
100
AcDbEntity
  8
M79
  6
CONTINUOUS
370
13
 62
     7
100
AcDbLine
 10
273.0
 20
37.5
 11
273.0
 21
10.0
  0
LINE
  5
465
100
AcDbEntity
  8
M79
  6
CONTINUOUS
370
13
 62
     7
100
AcDbLine
 10
248.0
 20
21.0
 11
298.0
 21
21.0
  0
LINE
  5
466
100
AcDbEntity
  8
M79
  6
CONTINUOUS
370
13
 62
     7
100
AcDbLine
 10
240.0
 20
15.5
 11
298.0
 21
15.5
  0
LINE
  5
467
100
AcDbEntity
  8
M79
  6
CONTINUOUS
370
13
 62
     7
100
AcDbLine
 10
341.3
 20
26.0
 11
341.3
 21
10.0
  0
TEXT
  5
468
100
AcDbEntity
  8
M79
 62
     7
100
AcDbText
 10
398.43067
 20
23.014603
 40
2.8
  1
ＲＥＧＤ．
 41
0.535714
  7
STANDARD
100
AcDbText
  0
TEXT
  5
469
100
AcDbEntity
  8
M79
 62
     7
100
AcDbText
 10
281.166667
 20
33.0
 40
3.0
  1
ＤＡＴＥ
 41
0.555556
  7
STANDARD
100
AcDbText
  0
TEXT
  5
46A
100
AcDbEntity
  8
M79
 62
     7
100
AcDbText
 10
248.166667
 20
33.0
 40
3.0
  1
ＳＩＧＮＡＴＵＲＥ
 41
0.555556
  7
STANDARD
100
AcDbText
  0
TEXT
  5
46B
100
AcDbEntity
  8
M79
 62
     7
100
AcDbText
 10
299.816162
 20
34.347473
 40
2.5
  1
ＰＲＯＪＥＣＴＩＯＮ
 41
0.5
  7
STANDARD
100
AcDbText
  0
LINE
  5
46C
100
AcDbEntity
  8
M79
  6
CONTINUOUS
370
25
 62
     7
100
AcDbLine
 10
400.990983
 20
32.8
 11
401.3
 21
32.8
  0
ARC
  5
46D
100
AcDbEntity
  8
M79
  6
CONTINUOUS
370
25
 62
     7
100
AcDbCircle
 10
400.990983
 20
34.0
 40
0.2
100
AcDbArc
 50
90.0
 51
138.189685
  0
ARC
  5
46E
100
AcDbEntity
  8
M79
  6
CONTINUOUS
370
25
 62
     7
100
AcDbCircle
 10
401.55
 20
33.5
 40
0.95
100
AcDbArc
 50
138.189685
 51
221.810315
  0
ELLIPSE
  5
46F
100
AcDbEntity
  8
M79
  6
CONTINUOUS
370
25
 62
     7
100
AcDbEllipse
 10
404.0
 20
33.5
 11
5.0
 21
0.0
210
0.0
220
0.0
230
1.0
 40
0.6
 41
0.0
 42
6.283185307179586
  0
LINE
  5
470
100
AcDbEntity
  8
M79
  6
CONTINUOUS
370
25
 62
     7
100
AcDbLine
 10
402.1
 20
35.2
 11
402.1
 21
34.894427
  0
LINE
  5
471
100
AcDbEntity
  8
M79
  6
CONTINUOUS
370
25
 62
     7
100
AcDbLine
 10
406.8
 20
34.2
 11
406.8
 21
32.8
  0
LINE
  5
472
100
AcDbEntity
  8
M79
  6
CONTINUOUS
370
25
 62
     7
100
AcDbLine
 10
405.8
 20
34.2
 11
406.0
 21
34.2
  0
LINE
  5
473
100
AcDbEntity
  8
M79
  6
CONTINUOUS
370
25
 62
     7
100
AcDbLine
 10
407.209017
 20
32.8
 11
406.8
 21
32.8
  0
LINE
  5
474
100
AcDbEntity
  8
M79
  6
CONTINUOUS
370
25
 62
     7
100
AcDbLine
 10
406.8
 20
34.2
 11
407.209017
 21
34.2
  0
LINE
  5
475
100
AcDbEntity
  8
M79
  6
CONTINUOUS
370
25
 62
     7
100
AcDbLine
 10
406.0
 20
32.8
 11
405.8
 21
32.8
  0
LINE
  5
476
100
AcDbEntity
  8
M79
  6
CONTINUOUS
370
25
 62
     7
100
AcDbLine
 10
403.189003
 20
31.8
 11
403.458233
 21
32.5
  0
LINE
  5
477
100
AcDbEntity
  8
M79
  6
CONTINUOUS
370
25
 62
     7
100
AcDbLine
 10
404.810997
 20
31.8
 11
404.541767
 21
32.5
  0
LINE
  5
478
100
AcDbEntity
  8
M79
  6
CONTINUOUS
370
25
 62
     7
100
AcDbLine
 10
403.727464
 20
33.2
 11
404.0
 21
34.108593
  0
LINE
  5
479
100
AcDbEntity
  8
M79
  6
CONTINUOUS
370
25
 62
     7
100
AcDbLine
 10
403.727464
 20
33.2
 11
404.272536
 21
33.2
  0
LINE
  5
47A
100
AcDbEntity
  8
M79
  6
CONTINUOUS
370
25
 62
     7
100
AcDbLine
 10
404.272536
 20
33.2
 11
404.0
 21
34.108593
  0
LINE
  5
47B
100
AcDbEntity
  8
M79
  6
CONTINUOUS
370
25
 62
     7
100
AcDbLine
 10
403.458233
 20
32.5
 11
404.541767
 21
32.5
  0
LINE
  5
47C
100
AcDbEntity
  8
M79
  6
CONTINUOUS
370
25
 62
     7
100
AcDbLine
 10
406.0
 20
34.2
 11
406.0
 21
32.8
  0
LINE
  5
47D
100
AcDbEntity
  8
M79
  6
CONTINUOUS
370
25
 62
     7
100
AcDbLine
 10
400.990983
 20
35.2
 11
401.3
 21
35.2
  0
LINE
  5
47E
100
AcDbEntity
  8
M79
  6
CONTINUOUS
370
25
 62
     7
100
AcDbLine
 10
402.1
 20
35.2
 11
402.5
 21
35.2
  0
LINE
  5
47F
100
AcDbEntity
  8
M79
  6
CONTINUOUS
370
25
 62
     7
100
AcDbLine
 10
402.5
 20
35.2
 11
402.5
 21
33.9
  0
LINE
  5
480
100
AcDbEntity
  8
M79
  6
CONTINUOUS
370
25
 62
     7
100
AcDbLine
 10
400.990983
 20
31.8
 11
401.3
 21
31.8
  0
LINE
  5
481
100
AcDbEntity
  8
M79
  6
CONTINUOUS
370
25
 62
     7
100
AcDbLine
 10
403.65
 20
35.2
 11
404.35
 21
35.2
  0
LINE
  5
482
100
AcDbEntity
  8
M79
  6
CONTINUOUS
370
25
 62
     7
100
AcDbLine
 10
402.317588
 20
31.8
 11
403.189003
 21
31.8
  0
LINE
  5
483
100
AcDbEntity
  8
M79
  6
CONTINUOUS
370
25
 62
     7
100
AcDbLine
 10
404.810997
 20
31.8
 11
405.682412
 21
31.8
  0
LINE
  5
484
100
AcDbEntity
  8
M79
  6
CONTINUOUS
370
25
 62
     7
100
AcDbLine
 10
407.009017
 20
31.8
 11
405.8
 21
31.8
  0
LINE
  5
485
100
AcDbEntity
  8
M79
  6
CONTINUOUS
370
25
 62
     7
100
AcDbLine
 10
405.8
 20
35.2
 11
407.009017
 21
35.2
  0
LINE
  5
486
100
AcDbEntity
  8
M79
  6
CONTINUOUS
370
25
 62
     7
100
AcDbLine
 10
405.8
 20
35.2
 11
405.8
 21
34.2
  0
LINE
  5
487
100
AcDbEntity
  8
M79
  6
CONTINUOUS
370
25
 62
     7
100
AcDbLine
 10
405.8
 20
32.8
 11
405.8
 21
31.8
  0
LINE
  5
488
100
AcDbEntity
  8
M79
  6
CONTINUOUS
370
25
 62
     7
100
AcDbLine
 10
403.65
 20
35.2
 11
402.317588
 21
31.8
  0
LINE
  5
489
100
AcDbEntity
  8
M79
  6
CONTINUOUS
370
25
 62
     7
100
AcDbLine
 10
404.35
 20
35.2
 11
405.682412
 21
31.8
  0
LINE
  5
48A
100
AcDbEntity
  8
M79
  6
CONTINUOUS
370
25
 62
     7
100
AcDbLine
 10
402.5
 20
33.9
 11
401.602667
 21
33.9
  0
LINE
  5
48B
100
AcDbEntity
  8
M79
  6
CONTINUOUS
370
25
 62
     7
100
AcDbLine
 10
402.495826
 20
33.1
 11
401.602667
 21
33.1
  0
LINE
  5
48C
100
AcDbEntity
  8
M79
  6
CONTINUOUS
370
25
 62
     7
100
AcDbLine
 10
401.820551
 20
30.8
 11
406.179449
 21
30.8
  0
LINE
  5
48D
100
AcDbEntity
  8
M79
  6
CONTINUOUS
370
25
 62
     7
100
AcDbLine
 10
401.0
 20
31.1
 11
407.0
 21
31.1
  0
LINE
  5
48E
100
AcDbEntity
  8
M79
  6
CONTINUOUS
370
25
 62
     7
100
AcDbLine
 10
400.429286
 20
31.4
 11
407.570714
 21
31.4
  0
LINE
  5
48F
100
AcDbEntity
  8
M79
  6
CONTINUOUS
370
25
 62
     7
100
AcDbLine
 10
400.0
 20
31.7
 11
408.0
 21
31.7
  0
LINE
  5
490
100
AcDbEntity
  8
M79
  6
CONTINUOUS
370
25
 62
     7
100
AcDbLine
 10
399.669873
 20
32.0
 11
400.327658
 21
32.0
  0
LINE
  5
491
100
AcDbEntity
  8
M79
  6
CONTINUOUS
370
25
 62
     7
100
AcDbLine
 10
401.963325
 20
32.0
 11
402.395965
 21
32.0
  0
LINE
  5
492
100
AcDbEntity
  8
M79
  6
CONTINUOUS
370
25
 62
     7
100
AcDbLine
 10
403.265926
 20
32.0
 11
404.734074
 21
32.0
  0
LINE
  5
493
100
AcDbEntity
  8
M79
  6
CONTINUOUS
370
25
 62
     7
100
AcDbLine
 10
405.604035
 20
32.0
 11
405.8
 21
32.0
  0
LINE
  5
494
100
AcDbEntity
  8
M79
  6
CONTINUOUS
370
25
 62
     7
100
AcDbLine
 10
407.672342
 20
32.0
 11
408.330127
 21
32.0
  0
LINE
  5
495
100
AcDbEntity
  8
M79
  6
CONTINUOUS
370
25
 62
     7
100
AcDbLine
 10
399.417424
 20
32.3
 11
400.012957
 21
32.3
  0
LINE
  5
496
100
AcDbEntity
  8
M79
  6
CONTINUOUS
370
25
 62
     7
100
AcDbLine
 10
402.274679
 20
32.3
 11
402.513531
 21
32.3
  0
LINE
  5
497
100
AcDbEntity
  8
M79
  6
CONTINUOUS
370
25
 62
     7
100
AcDbLine
 10
403.38131
 20
32.3
 11
404.61869
 21
32.3
  0
LINE
  5
498
100
AcDbEntity
  8
M79
  6
CONTINUOUS
370
25
 62
     7
100
AcDbLine
 10
405.486469
 20
32.3
 11
405.8
 21
32.3
  0
LINE
  5
499
100
AcDbEntity
  8
M79
  6
CONTINUOUS
370
25
 62
     7
100
AcDbLine
 10
407.987043
 20
32.3
 11
408.582576
 21
32.3
  0
LINE
  5
49A
100
AcDbEntity
  8
M79
  6
CONTINUOUS
370
25
 62
     7
100
AcDbLine
 10
399.230304
 20
32.6
 11
399.820116
 21
32.6
  0
LINE
  5
49B
100
AcDbEntity
  8
M79
  6
CONTINUOUS
370
25
 62
     7
100
AcDbLine
 10
402.431371
 20
32.6
 11
402.631097
 21
32.6
  0
LINE
  5
49C
100
AcDbEntity
  8
M79
  6
CONTINUOUS
370
25
 62
     7
100
AcDbLine
 10
405.368903
 20
32.6
 11
405.8
 21
32.6
  0
LINE
  5
49D
100
AcDbEntity
  8
M79
  6
CONTINUOUS
370
25
 62
     7
100
AcDbLine
 10
408.179884
 20
32.6
 11
408.769696
 21
32.6
  0
LINE
  5
49E
100
AcDbEntity
  8
M79
  6
CONTINUOUS
370
25
 62
     7
100
AcDbLine
 10
399.101021
 20
32.9
 11
399.694602
 21
32.9
  0
LINE
  5
49F
100
AcDbEntity
  8
M79
  6
CONTINUOUS
370
25
 62
     7
100
AcDbLine
 10
400.813454
 20
32.9
 11
401.477529
 21
32.9
  0
LINE
  5
4A0
100
AcDbEntity
  8
M79
  6
CONTINUOUS
370
25
 62
     7
100
AcDbLine
 10
402.495826
 20
32.9
 11
402.748663
 21
32.9
  0
LINE
  5
4A1
100
AcDbEntity
  8
M79
  6
CONTINUOUS
370
25
 62
     7
100
AcDbLine
 10
405.251337
 20
32.9
 11
406.0
 21
32.9
  0
ARC
  5
4A2
100
AcDbEntity
  8
M79
  6
CONTINUOUS
370
25
 62
     7
100
AcDbCircle
 10
400.990983
 20
33.0
 40
0.2
100
AcDbArc
 50
221.810315
 51
270.0
  0
LINE
  5
4A3
100
AcDbEntity
  8
M79
  6
CONTINUOUS
370
25
 62
     7
100
AcDbLine
 10
400.990983
 20
34.2
 11
401.3
 21
34.2
  0
ARC
  5
4A4
100
AcDbEntity
  8
M79
  6
CONTINUOUS
370
25
 62
     7
100
AcDbCircle
 10
406.65
 20
33.5
 40
0.95
100
AcDbArc
 50
318.189685
 51
401.810315
  0
LINE
  5
4A5
100
AcDbEntity
  8
M79
  6
CONTINUOUS
370
25
 62
     7
100
AcDbLine
 10
406.8
 20
34.0
 11
407.457775
 21
34.0
  0
ARC
  5
4A6
100
AcDbEntity
  8
M79
  6
CONTINUOUS
370
25
 62
     7
100
AcDbCircle
 10
407.209017
 20
34.0
 40
0.2
100
AcDbArc
 50
41.810315
 51
90.0
  0
ARC
  5
4A7
100
AcDbEntity
  8
M79
  6
CONTINUOUS
370
25
 62
     7
100
AcDbCircle
 10
407.209017
 20
33.0
 40
0.2
100
AcDbArc
 50
270.0
 51
318.189685
  0
ARC
  5
4A8
100
AcDbEntity
  8
M79
  6
CONTINUOUS
370
25
 62
     7
100
AcDbCircle
 10
401.3
 20
34.0
 40
1.2
100
AcDbArc
 50
48.189685
 51
90.0
  0
ARC
  5
4A9
100
AcDbEntity
  8
M79
  6
CONTINUOUS
370
25
 62
     7
100
AcDbCircle
 10
400.990983
 20
34.0
 40
1.2
100
AcDbArc
 50
90.0
 51
138.189685
  0
ARC
  5
4AA
100
AcDbEntity
  8
M79
  6
CONTINUOUS
370
25
 62
     7
100
AcDbCircle
 10
401.55
 20
33.5
 40
1.95
100
AcDbArc
 50
138.189685
 51
221.810315
  0
ARC
  5
4AB
100
AcDbEntity
  8
M79
  6
CONTINUOUS
370
25
 62
     7
100
AcDbCircle
 10
400.990983
 20
33.0
 40
1.2
100
AcDbArc
 50
221.810315
 51
270.0
  0
ARC
  5
4AC
100
AcDbEntity
  8
M79
  6
CONTINUOUS
370
25
 62
     7
100
AcDbCircle
 10
401.3
 20
33.0
 40
1.2
100
AcDbArc
 50
270.0
 51
364.780192
  0
ARC
  5
4AD
100
AcDbEntity
  8
M79
  6
CONTINUOUS
370
25
 62
     7
100
AcDbCircle
 10
406.45
 20
33.5
 40
1.95
100
AcDbArc
 50
318.189685
 51
401.810315
  0
ARC
  5
4AE
100
AcDbEntity
  8
M79
  6
CONTINUOUS
370
25
 62
     7
100
AcDbCircle
 10
407.009017
 20
33.0
 40
1.2
100
AcDbArc
 50
270.0
 51
318.189685
  0
ARC
  5
4AF
100
AcDbEntity
  8
M79
  6
CONTINUOUS
370
25
 62
     7
100
AcDbCircle
 10
407.009017
 20
34.0
 40
1.2
100
AcDbArc
 50
41.810315
 51
90.0
  0
ARC
  5
4B0
100
AcDbEntity
  8
M79
  6
CONTINUOUS
370
25
 62
     7
100
AcDbCircle
 10
401.3
 20
34.0
 40
0.2
100
AcDbArc
 50
41.810315
 51
90.0
  0
ARC
  5
4B1
100
AcDbEntity
  8
M79
  6
CONTINUOUS
370
25
 62
     7
100
AcDbCircle
 10
400.740983
 20
33.5
 40
0.95
100
AcDbArc
 50
318.189685
 51
335.098938
  0
ARC
  5
4B2
100
AcDbEntity
  8
M79
  6
CONTINUOUS
370
25
 62
     7
100
AcDbCircle
 10
401.3
 20
33.0
 40
0.2
100
AcDbArc
 50
270.0
 51
318.189685
  0
ARC
  5
4B3
100
AcDbEntity
  8
M79
  6
CONTINUOUS
370
25
 62
     7
100
AcDbCircle
 10
400.740983
 20
33.5
 40
0.95
100
AcDbArc
 50
24.901062
 51
41.810315
  0
LINE
  5
4B4
100
AcDbEntity
  8
M79
  6
CONTINUOUS
370
25
 62
     7
100
AcDbLine
 10
408.305398
 20
32.9
 11
408.898979
 21
32.9
  0
LINE
  5
4B5
100
AcDbEntity
  8
M79
  6
CONTINUOUS
370
25
 62
     7
100
AcDbLine
 10
399.025063
 20
33.2
 11
399.623215
 21
33.2
  0
LINE
  5
4B6
100
AcDbEntity
  8
M79
  6
CONTINUOUS
370
25
 62
     7
100
AcDbLine
 10
400.648612
 20
33.2
 11
402.866228
 21
33.2
  0
LINE
  5
4B7
100
AcDbEntity
  8
M79
  6
CONTINUOUS
370
25
 62
     7
100
AcDbLine
 10
405.133772
 20
33.2
 11
406.0
 21
33.2
  0
LINE
  5
4B8
100
AcDbEntity
  8
M79
  6
CONTINUOUS
370
25
 62
     7
100
AcDbLine
 10
408.376785
 20
33.2
 11
408.974937
 21
33.2
  0
LINE
  5
4B9
100
AcDbEntity
  8
M79
  6
CONTINUOUS
370
25
 62
     7
100
AcDbLine
 10
399.0
 20
33.5
 11
399.6
 21
33.5
  0
LINE
  5
4BA
100
AcDbEntity
  8
M79
  6
CONTINUOUS
370
25
 62
     7
100
AcDbLine
 10
400.6
 20
33.5
 11
402.983794
 21
33.5
  0
LINE
  5
4BB
100
AcDbEntity
  8
M79
  6
CONTINUOUS
370
25
 62
     7
100
AcDbLine
 10
405.016206
 20
33.5
 11
406.0
 21
33.5
  0
LINE
  5
4BC
100
AcDbEntity
  8
M79
  6
CONTINUOUS
370
25
 62
     7
100
AcDbLine
 10
408.4
 20
33.5
 11
409.0
 21
33.5
  0
LINE
  5
4BD
100
AcDbEntity
  8
M79
  6
CONTINUOUS
370
25
 62
     7
100
AcDbLine
 10
399.025063
 20
33.8
 11
399.623215
 21
33.8
  0
LINE
  5
4BE
100
AcDbEntity
  8
M79
  6
CONTINUOUS
370
25
 62
     7
100
AcDbLine
 10
400.648612
 20
33.8
 11
403.10136
 21
33.8
  0
LINE
  5
4BF
100
AcDbEntity
  8
M79
  6
CONTINUOUS
370
25
 62
     7
100
AcDbLine
 10
404.89864
 20
33.8
 11
406.0
 21
33.8
  0
LINE
  5
4C0
100
AcDbEntity
  8
M79
  6
CONTINUOUS
370
25
 62
     7
100
AcDbLine
 10
408.376785
 20
33.8
 11
408.974937
 21
33.8
  0
LINE
  5
4C1
100
AcDbEntity
  8
M79
  6
CONTINUOUS
370
25
 62
     7
100
AcDbLine
 10
399.101021
 20
34.1
 11
399.694602
 21
34.1
  0
LINE
  5
4C2
100
AcDbEntity
  8
M79
  6
CONTINUOUS
370
25
 62
     7
100
AcDbLine
 10
400.813454
 20
34.1
 11
401.477529
 21
34.1
  0
LINE
  5
4C3
100
AcDbEntity
  8
M79
  6
CONTINUOUS
370
25
 62
     7
100
AcDbLine
 10
402.5
 20
34.1
 11
403.218926
 21
34.1
  0
LINE
  5
4C4
100
AcDbEntity
  8
M79
  6
CONTINUOUS
370
25
 62
     7
100
AcDbLine
 10
404.781074
 20
34.1
 11
406.0
 21
34.1
  0
LINE
  5
4C5
100
AcDbEntity
  8
M79
  6
CONTINUOUS
370
25
 62
     7
100
AcDbLine
 10
408.305398
 20
34.1
 11
408.898979
 21
34.1
  0
LINE
  5
4C6
100
AcDbEntity
  8
M79
  6
CONTINUOUS
370
25
 62
     7
100
AcDbLine
 10
399.230304
 20
34.4
 11
399.820116
 21
34.4
  0
LINE
  5
4C7
100
AcDbEntity
  8
M79
  6
CONTINUOUS
370
25
 62
     7
100
AcDbLine
 10
402.5
 20
34.4
 11
403.336491
 21
34.4
  0
LINE
  5
4C8
100
AcDbEntity
  8
M79
  6
CONTINUOUS
370
25
 62
     7
100
AcDbLine
 10
404.663509
 20
34.4
 11
405.8
 21
34.4
  0
LINE
  5
4C9
100
AcDbEntity
  8
M79
  6
CONTINUOUS
370
25
 62
     7
100
AcDbLine
 10
408.179884
 20
34.4
 11
408.769696
 21
34.4
  0
LINE
  5
4CA
100
AcDbEntity
  8
M79
  6
CONTINUOUS
370
25
 62
     7
100
AcDbLine
 10
399.417424
 20
34.7
 11
400.012957
 21
34.7
  0
LINE
  5
4CB
100
AcDbEntity
  8
M79
  6
CONTINUOUS
370
25
 62
     7
100
AcDbLine
 10
402.5
 20
34.7
 11
403.454057
 21
34.7
  0
LINE
  5
4CC
100
AcDbEntity
  8
M79
  6
CONTINUOUS
370
25
 62
     7
100
AcDbLine
 10
404.545943
 20
34.7
 11
405.8
 21
34.7
  0
LINE
  5
4CD
100
AcDbEntity
  8
M79
  6
CONTINUOUS
370
25
 62
     7
100
AcDbLine
 10
407.987043
 20
34.7
 11
408.582576
 21
34.7
  0
LINE
  5
4CE
100
AcDbEntity
  8
M79
  6
CONTINUOUS
370
25
 62
     7
100
AcDbLine
 10
399.669873
 20
35.0
 11
400.327658
 21
35.0
  0
LINE
  5
4CF
100
AcDbEntity
  8
M79
  6
CONTINUOUS
370
25
 62
     7
100
AcDbLine
 10
401.963325
 20
35.0
 11
402.1
 21
35.0
  0
LINE
  5
4D0
100
AcDbEntity
  8
M79
  6
CONTINUOUS
370
25
 62
     7
100
AcDbLine
 10
402.5
 20
35.0
 11
403.571623
 21
35.0
  0
LINE
  5
4D1
100
AcDbEntity
  8
M79
  6
CONTINUOUS
370
25
 62
     7
100
AcDbLine
 10
404.428377
 20
35.0
 11
405.8
 21
35.0
  0
LINE
  5
4D2
100
AcDbEntity
  8
M79
  6
CONTINUOUS
370
25
 62
     7
100
AcDbLine
 10
407.672342
 20
35.0
 11
408.330127
 21
35.0
  0
LINE
  5
4D3
100
AcDbEntity
  8
M79
  6
CONTINUOUS
370
25
 62
     7
100
AcDbLine
 10
400.0
 20
35.3
 11
408.0
 21
35.3
  0
LINE
  5
4D4
100
AcDbEntity
  8
M79
  6
CONTINUOUS
370
25
 62
     7
100
AcDbLine
 10
400.429286
 20
35.6
 11
407.570714
 21
35.6
  0
LINE
  5
4D5
100
AcDbEntity
  8
M79
  6
CONTINUOUS
370
25
 62
     7
100
AcDbLine
 10
401.0
 20
35.9
 11
407.0
 21
35.9
  0
LINE
  5
4D6
100
AcDbEntity
  8
M79
  6
CONTINUOUS
370
25
 62
     7
100
AcDbLine
 10
401.820551
 20
36.2
 11
406.179449
 21
36.2
  0
LINE
  5
4D7
100
AcDbEntity
  8
M79
  6
CONTINUOUS
370
25
 62
     7
100
AcDbLine
 10
403.81745
 20
33.5
 11
404.18255
 21
33.5
  0
LINE
  5
4D8
100
AcDbEntity
  8
M79
  6
CONTINUOUS
370
25
 62
     7
100
AcDbLine
 10
403.907436
 20
33.8
 11
404.092564
 21
33.8
  0
LINE
  5
4D9
100
AcDbEntity
  8
M79
  6
CONTINUOUS
370
25
 62
     7
100
AcDbLine
 10
403.997422
 20
34.1
 11
404.002578
 21
34.1
  0
LINE
  5
4DA
100
AcDbEntity
  8
M79
  6
CONTINUOUS
370
25
 62
     7
100
AcDbLine
 10
406.8
 20
33.1
 11
407.511684
 21
33.1
  0
LINE
  5
4DB
100
AcDbEntity
  8
M79
  6
CONTINUOUS
370
25
 62
     7
100
AcDbLine
 10
406.8
 20
33.4
 11
407.594722
 21
33.4
  0
LINE
  5
4DC
100
AcDbEntity
  8
M79
  6
CONTINUOUS
370
25
 62
     7
100
AcDbLine
 10
406.8
 20
33.7
 11
407.578709
 21
33.7
  0
LINE
  5
4DD
100
AcDbEntity
  8
M79
  6
CONTINUOUS
370
25
 62
     7
100
AcDbLine
 10
308.078572
 20
28.751659
 11
313.342243
 21
27.501659
  0
LINE
  5
4DE
100
AcDbEntity
  8
M79
  6
CONTINUOUS
370
25
 62
     7
100
AcDbLine
 10
308.078572
 20
31.251659
 11
308.078572
 21
28.751659
  0
CIRCLE
  5
4DF
100
AcDbEntity
  8
M79
  6
CONTINUOUS
370
25
 62
     7
100
AcDbCircle
 10
302.493366
 20
30.001659
 40
1.25
  0
LINE
  5
4E0
100
AcDbEntity
  8
M79
  6
CONTINUOUS
370
25
 62
     7
100
AcDbLine
 10
313.342243
 20
32.501659
 11
313.342243
 21
27.501659
  0
LINE
  5
4E1
100
AcDbEntity
  8
M79
  6
DASHDOT
370
13
 62
     7
100
AcDbLine
 10
299.09737
 20
30.001659
 11
315.354218
 21
30.001659
  0
LINE
  5
4E2
100
AcDbEntity
  8
M79
  6
DASHDOT
370
13
 62
     7
100
AcDbLine
 10
302.493366
 20
26.945247
 11
302.493366
 21
33.62408
  0
LINE
  5
4E3
100
AcDbEntity
  8
M79
  6
CONTINUOUS
370
25
 62
     7
100
AcDbLine
 10
308.078572
 20
31.251659
 11
313.342243
 21
32.501659
  0
CIRCLE
  5
4E4
100
AcDbEntity
  8
M79
  6
CONTINUOUS
370
25
 62
     7
100
AcDbCircle
 10
302.493366
 20
30.001659
 40
2.5
  0
TEXT
  5
4E5
100
AcDbEntity
  8
M79
 62
     7
100
AcDbText
 10
298.321647
 20
17.727871
 40
4.2
  1
Ｈ
 41
0.515873
  7
STANDARD
100
AcDbText
  0
TEXT
  5
4E6
100
AcDbEntity
  8
M79
 62
     7
100
AcDbText
 10
322.679892
 20
14.006361
 40
2.9
  1
ｐ
 41
0.603448
  7
STANDARD
100
AcDbText
  0
TEXT
  5
4E7
100
AcDbEntity
  8
M79
 62
     7
100
AcDbText
 10
321.279813
 20
13.906359
 40
2.9
  1
ａ
 41
0.603448
  7
STANDARD
100
AcDbText
  0
TEXT
  5
4E8
100
AcDbEntity
  8
M79
 62
     7
100
AcDbText
 10
319.879855
 20
13.906359
 40
2.9
  1
Ｊ
 41
0.603448
  7
STANDARD
100
AcDbText
  0
TEXT
  5
4E9
100
AcDbEntity
  8
M79
 62
     7
100
AcDbText
 10
316.779853
 20
13.906361
 40
2.9
  1
ｏ
 41
0.603448
  7
STANDARD
100
AcDbText
  0
TEXT
  5
4EA
100
AcDbEntity
  8
M79
 62
     7
100
AcDbText
 10
315.379773
 20
13.906361
 40
2.9
  1
ｙ
 41
0.603448
  7
STANDARD
100
AcDbText
  0
TEXT
  5
4EB
100
AcDbEntity
  8
M79
 62
     7
100
AcDbText
 10
313.87987
 20
13.906361
 40
2.9
  1
ｋ
 41
0.603448
  7
STANDARD
100
AcDbText
  0
TEXT
  5
4EC
100
AcDbEntity
  8
M79
 62
     7
100
AcDbText
 10
312.379815
 20
13.906361
 40
2.9
  1
ｏ
 41
0.603448
  7
STANDARD
100
AcDbText
  0
TEXT
  5
4ED
100
AcDbEntity
  8
M79
 62
     7
100
AcDbText
 10
310.979857
 20
13.906361
 40
2.9
  1
Ｔ
 41
0.603448
  7
STANDARD
100
AcDbText
  0
TEXT
  5
4EE
100
AcDbEntity
  8
M79
 62
     7
100
AcDbText
 10
324.279801
 20
13.906359
 40
2.9
  1
ａ
 41
0.603448
  7
STANDARD
100
AcDbText
  0
TEXT
  5
4EF
100
AcDbEntity
  8
M79
 62
     7
100
AcDbText
 10
325.739766
 20
13.906359
 40
2.9
  1
ｎ
 41
0.603448
  7
STANDARD
100
AcDbText
  0
TEXT
  5
4F0
100
AcDbEntity
  8
M79
 62
     7
100
AcDbText
 10
299.621647
 20
17.727871
 40
4.2
  1
ｉ
 41
0.515873
  7
STANDARD
100
AcDbText
  0
TEXT
  5
4F1
100
AcDbEntity
  8
M79
 62
     7
100
AcDbText
 10
302.221647
 20
17.727871
 40
4.2
  1
ａ
 41
0.515873
  7
STANDARD
100
AcDbText
  0
TEXT
  5
4F2
100
AcDbEntity
  8
M79
 62
     7
100
AcDbText
 10
300.921647
 20
17.727871
 40
4.2
  1
ｔ
 41
0.515873
  7
STANDARD
100
AcDbText
  0
TEXT
  5
4F3
100
AcDbEntity
  8
M79
 62
     7
100
AcDbText
 10
303.521647
 20
17.727871
 40
4.2
  1
ｃ
 41
0.515873
  7
STANDARD
100
AcDbText
  0
TEXT
  5
4F4
100
AcDbEntity
  8
M79
 62
     7
100
AcDbText
 10
306.121647
 20
17.727871
 40
4.2
  1
ｉ
 41
0.515873
  7
STANDARD
100
AcDbText
  0
TEXT
  5
4F5
100
AcDbEntity
  8
M79
 62
     7
100
AcDbText
 10
304.821647
 20
17.727871
 40
4.2
  1
ｈ
 41
0.515873
  7
STANDARD
100
AcDbText
  0
TEXT
  5
4F6
100
AcDbEntity
  8
M79
 62
     7
100
AcDbText
 10
308.421647
 20
17.727871
 40
4.2
  1
Ｇ
 41
0.515873
  7
STANDARD
100
AcDbText
  0
TEXT
  5
4F7
100
AcDbEntity
  8
M79
 62
     7
100
AcDbText
 10
309.721647
 20
17.727871
 40
4.2
  1
ｌ
 41
0.515873
  7
STANDARD
100
AcDbText
  0
TEXT
  5
4F8
100
AcDbEntity
  8
M79
 62
     7
100
AcDbText
 10
311.021647
 20
17.727871
 40
4.2
  1
ｏ
 41
0.515873
  7
STANDARD
100
AcDbText
  0
TEXT
  5
4F9
100
AcDbEntity
  8
M79
 62
     7
100
AcDbText
 10
312.321647
 20
17.727871
 40
4.2
  1
ｂ
 41
0.515873
  7
STANDARD
100
AcDbText
  0
TEXT
  5
4FA
100
AcDbEntity
  8
M79
 62
     7
100
AcDbText
 10
313.621647
 20
17.727871
 40
4.2
  1
ａ
 41
0.515873
  7
STANDARD
100
AcDbText
  0
TEXT
  5
4FB
100
AcDbEntity
  8
M79
 62
     7
100
AcDbText
 10
314.921648
 20
17.727871
 40
4.2
  1
ｌ
 41
0.515873
  7
STANDARD
100
AcDbText
  0
TEXT
  5
4FC
100
AcDbEntity
  8
M79
 62
     7
100
AcDbText
 10
317.221647
 20
17.727871
 40
4.2
  1
Ｌ
 41
0.515873
  7
STANDARD
100
AcDbText
  0
TEXT
  5
4FD
100
AcDbEntity
  8
M79
 62
     7
100
AcDbText
 10
318.521646
 20
17.727871
 40
4.2
  1
ｉ
 41
0.515873
  7
STANDARD
100
AcDbText
  0
TEXT
  5
4FE
100
AcDbEntity
  8
M79
 62
     7
100
AcDbText
 10
319.821647
 20
17.727871
 40
4.2
  1
ｆ
 41
0.515873
  7
STANDARD
100
AcDbText
  0
TEXT
  5
4FF
100
AcDbEntity
  8
M79
 62
     7
100
AcDbText
 10
321.121646
 20
17.727871
 40
4.2
  1
ｅ
 41
0.515873
  7
STANDARD
100
AcDbText
  0
TEXT
  5
500
100
AcDbEntity
  8
M79
 62
     7
100
AcDbText
 10
323.421646
 20
17.727871
 40
4.2
  1
Ｓ
 41
0.515873
  7
STANDARD
100
AcDbText
  0
TEXT
  5
501
100
AcDbEntity
  8
M79
 62
     7
100
AcDbText
 10
324.721645
 20
17.727871
 40
4.2
  1
ｏ
 41
0.515873
  7
STANDARD
100
AcDbText
  0
TEXT
  5
502
100
AcDbEntity
  8
M79
 62
     7
100
AcDbText
 10
326.021646
 20
17.727871
 40
4.2
  1
ｌ
 41
0.515873
  7
STANDARD
100
AcDbText
  0
TEXT
  5
503
100
AcDbEntity
  8
M79
 62
     7
100
AcDbText
 10
327.321645
 20
17.727871
 40
4.2
  1
ｕ
 41
0.515873
  7
STANDARD
100
AcDbText
  0
TEXT
  5
504
100
AcDbEntity
  8
M79
 62
     7
100
AcDbText
 10
328.621646
 20
17.727871
 40
4.2
  1
ｔ
 41
0.515873
  7
STANDARD
100
AcDbText
  0
TEXT
  5
505
100
AcDbEntity
  8
M79
 62
     7
100
AcDbText
 10
329.921646
 20
17.727871
 40
4.2
  1
ｉ
 41
0.515873
  7
STANDARD
100
AcDbText
  0
TEXT
  5
506
100
AcDbEntity
  8
M79
 62
     7
100
AcDbText
 10
331.221645
 20
17.727871
 40
4.2
  1
ｏ
 41
0.515873
  7
STANDARD
100
AcDbText
  0
TEXT
  5
507
100
AcDbEntity
  8
M79
 62
     7
100
AcDbText
 10
332.521644
 20
17.727871
 40
4.2
  1
ｎ
 41
0.515873
  7
STANDARD
100
AcDbText
  0
TEXT
  5
508
100
AcDbEntity
  8
M79
 62
     7
100
AcDbText
 10
333.821643
 20
17.727871
 40
4.2
  1
ｓ
 41
0.515873
  7
STANDARD
100
AcDbText
  0
TEXT
  5
509
100
AcDbEntity
  8
M79
 62
     7
100
AcDbText
 10
335.121643
 20
17.727871
 40
4.2
  1
，
 41
0.515873
  7
STANDARD
100
AcDbText
  0
TEXT
  5
50A
100
AcDbEntity
  8
M79
 62
     7
100
AcDbText
 10
336.121643
 20
17.727871
 40
4.2
  1
Ｉ
 41
0.515873
  7
STANDARD
100
AcDbText
  0
TEXT
  5
50B
100
AcDbEntity
  8
M79
 62
     7
100
AcDbText
 10
337.421642
 20
17.727871
 40
4.2
  1
ｎ
 41
0.515873
  7
STANDARD
100
AcDbText
  0
TEXT
  5
50C
100
AcDbEntity
  8
M79
 62
     7
100
AcDbText
 10
340.02164
 20
17.727871
 40
4.2
  1
．
 41
0.515873
  7
STANDARD
100
AcDbText
  0
TEXT
  5
50D
100
AcDbEntity
  8
M79
 62
     7
100
AcDbText
 10
338.721641
 20
17.727871
 40
4.2
  1
ｃ
 41
0.515873
  7
STANDARD
100
AcDbText
  0
ENDSEC
  0
SECTION
  2
OBJECTS
  0
DICTIONARY
  5
C
100
AcDbDictionary
  3
ACAD_GROUP
350
D
  3
ACAD_MLINESTYLE
350
E
  0
DICTIONARY
  5
D
102
{ACAD_REACTORS
330
C
102
}
100
AcDbDictionary
  0
DICTIONARY
  5
E
102
{ACAD_REACTORS
330
C
102
}
100
AcDbDictionary
  3
STANDARD
350
13
  0
DICTIONARY
  5
4D
330
4C
100
AcDbDictionary
280
     1
281
     1
  3
ACAD_DIMASSOC
360
4E
  0
DIMASSOC
  5
4E
102
{ACAD_REACTORS
330
4D
102
}
330
4D
100
AcDbDimAssoc
330
4C
 90
        1
 70
     0
 71
     0
  1
AcDbOsnapPointRef
 72
     10
331
4F
 73
     2
 91
        0
 40
0.677225
 10
191.521179
 20
70.263451
 30
0.000000
 75
     0
  0
DICTIONARY
  5
51
330
50
100
AcDbDictionary
280
     1
281
     1
  3
ACAD_DIMASSOC
360
52
  0
DIMASSOC
  5
52
102
{ACAD_REACTORS
330
51
102
}
330
51
100
AcDbDimAssoc
330
50
 90
        1
 70
     0
 71
     0
  1
AcDbOsnapPointRef
 72
     10
331
53
 73
     2
 91
        0
 40
0.500000
 10
196.674149
 20
67.105965
 30
0.000000
 75
     0
  0
DICTIONARY
  5
55
330
54
100
AcDbDictionary
280
     1
281
     1
  3
ACAD_DIMASSOC
360
56
  0
DIMASSOC
  5
56
102
{ACAD_REACTORS
330
55
102
}
330
55
100
AcDbDimAssoc
330
54
 90
        1
 70
     0
 71
     0
  1
AcDbOsnapPointRef
 72
     10
331
57
 73
     2
 91
        0
 40
0.693692
 10
202.305923
 20
63.947460
 30
0.000000
 75
     0
  0
MLINESTYLE
  5
13
102
{ACAD_REACTORS
330
E
102
}
100
AcDbMlineStyle
  2
STANDARD
 70
     0
  3

 62
     0
 51
90.0
 52
90.0
 71
     2
 49
0.5
 62
   256
  6
BYLAYER
 49
-0.5
 62
   256
  6
BYLAYER
  0
ENDSEC
  0
EOF
