  0
SECTION
  2
HEADER
  9
$ACADVER
  1
AC1015
  9
$INSBASE
 10
0.000000
 20
0.000000
 30
0.0
  9
$VIEWCTR
 10
7.531722
 20
4.5
  9
$VIEWSIZE
 40
9.0
  9
$SNAPMODE
 70
     0
  9
$SNAPUNIT
 10
1.0
 20
1.0
  9
$SNAPBASE
 10
0.0
 20
0.0
  9
$SNAPANG
 50
0.0
  9
$SNAPSTYLE
 70
     0
  9
$SNAPISOPAIR
 70
     0
  9
$GRIDMODE
 70
     0
  9
$GRIDUNIT
 10
0.0
 20
0.0
  9
$ORTHOMODE
 70
     0
  9
$REGENMODE
 70
     1
  9
$FILLMODE
 70
     1
  9
$QTEXTMODE
 70
     0
  9
$DRAGMODE
 70
     2
  9
$LTSCALE
  40
     1.000000
  9
$OSMODE
 70
     0
  9
$ATTMODE
 70
     1
  9
$TEXTSIZE
 40
0.2
  9
$TRACEWID
 40
0.05
  9
$TEXTSTYLE
  7
STANDARD
  9
$CELTYPE
  6
BYLAYER
  9
$CECOLOR
 62
   256
  9
$DIMSCALE
 40
1.0
  9
$DIMASZ
 40
0.18
  9
$DIMEXO
 40
0.0625
  9
$DIMDLI
 40
0.38
  9
$DIMRND
 40
0.0
  9
$DIMDLE
 40
0.0
  9
$DIMEXE
 40
0.18
  9
$DIMTP
 40
0.0
  9
$DIMTM
 40
0.0
  9
$DIMTXT
 40
0.18
  9
$DIMCEN
 40
0.09
  9
$DIMTSZ
 40
0.0
  9
$DIMADEC
 70
     0
  9
$DIMALTRND
 40
0.000000
  9
$DIMAZIN
 70
     0
  9
$DIMDSEP
 70
    46
  9
$DIMATFIT
 70
     3
  9
$DIMFRAC
 70
     0
  9
$DIMLDRBLK
  1

  9
$DIMLUNIT
 70
     2
  9
$DIMLWD
 70
   13
  9
$DIMLWE
 70
   13
  9
$DIMTMOVE
 70
     0
  9
$CELWEIGHT
370
    25
  9
$LWDISPLAY
290
    1
  9
$EXTNAMES
290
    1
  9
$DIMTOL
 70
     0
  9
$DIMLIM
 70
     0
  9
$DIMTIH
 70
     1
  9
$DIMTOH
 70
     1
  9
$DIMSE1
 70
     0
  9
$DIMSE2
 70
     0
  9
$DIMTAD
 70
     0
  9
$DIMZIN
 70
     0
  9
$DIMBLK
  1

  9
$LUNITS
 70
     2
  9
$LUPREC
 70
     4
  9
$AXISMODE
 70
     0
  9
$AXISUNIT
 10
0.0
 20
0.0
  9
$SKETCHINC
 40
0.1
  9
$FILLETRAD
 40
0.0
  9
$AUNITS
 70
     0
  9
$AUPREC
 70
     0
  9
$MENU
  1
ACAD
  9
$ELEVATION
 40
0.0
  9
$THICKNESS
 40
0.0
  9
$VIEWDIR
 10
0.0
 20
0.0
 30
1.0
  9
$LIMCHECK
 70
     0
  9
$BLIPMODE
 70
     1
  9
$CHAMFERA
 40
0.0
  9
$CHAMFERB
 40
0.0
  9
$FASTZOOM
 70
     1
  9
$SKPOLY
 70
     0
  9
$TDCREATE
 40
0000000.0000000000
  9
$TDUPDATE
 40
0000000.0000000000
  9
$TDINDWG
 40
0.0000000000
  9
$TDUSRTIMER
 40
0.0000000000
  9
$USRTIMER
 70
     1
  9
$ANGBASE
 50
0.0
  9
$ANGDIR
 70
     0
  9
$PDMODE
 70
     0
  9
$PDSIZE
 40
0.0
  9
$PLINEWID
 40
0.0
  9
$COORDS
 70
     0
  9
$USERI1
 70
     0
  9
$USERI2
 70
     0
  9
$USERI3
 70
     0
  9
$USERI4
 70
     0
  9
$USERI5
 70
     0
  9
$USERR1
 40
0.0
  9
$USERR2
 40
0.0
  9
$USERR3
 40
0.0
  9
$USERR4
 40
0.0
  9
$USERR5
 40
0.0
  9
$CLAYER
  8
M0
  9
$EXTMIN
 10
0.0
 20
0.0
  9
$EXTMAX
 10
420.0
 20
297.0
  9
$LIMMIN
 10
0.0
 20
0.0
  9
$LIMMAX
 10
420.0
 20
297.0
  9
$HANDSEED
  5
444
  0
ENDSEC
  0
SECTION
  2
CLASSES
  0
CLASS
  1
DIMASSOC
  2
AcDbDimAssoc
  3
"AcDbDimAssoc|Product Desc:     AcDim ARX App For Dimension|Company:          Autodesk, Inc.|WEB Address:      www.autodesk.com"
 90
        0
280
     0
281
     0
  0
ENDSEC
  0
SECTION
  2
TABLES
  0
TABLE
  2
VPORT
  5
8
100
AcDbSymbolTable
 70
     2
  0
VPORT
  5
14
100
AcDbSymbolTableRecord
100
AcDbViewportTableRecord
  2
*ACTIVE
 70
     0
 10
0.0
 20
0.0
 11
1.0
 21
1.0
 12
484.0
 22
297.0
 13
0.0
 23
0.0
 14
1.0
 24
1.0
 15
0.0
 25
0.0
 16
0.0
 26
0.0
 36
1.0
 17
0.0
 27
0.0
 37
0.0
 40
594.0
 41
2.0
 42
50.0
 43
0.0
 44
0.0
 50
0.0
 51
0.0
 71
     0
 72
   100
 73
     1
 74
     1
 75
     0
 76
     0
 77
     0
 78
     0
  0
ENDTAB
  0
TABLE
  2
LTYPE
  5
5
100
AcDbSymbolTable
 70
     5
  0
LTYPE
  5
15
100
AcDbSymbolTableRecord
100
AcDbLinetypeTableRecord
  2
BYBLOCK
 70
     0
  3

 72
    65
 73
     0
 40
0.0
  0
LTYPE
  5
16
100
AcDbSymbolTableRecord
100
AcDbLinetypeTableRecord
  2
BYLAYER
 70
     0
  3

 72
    65
 73
     0
 40
0.0
  0
LTYPE
  5
17
100
AcDbSymbolTableRecord
100
AcDbLinetypeTableRecord
  2
CONTINUOUS
 70
    64
  3
Solid line
 72
    65
 73
     0
 40
0.0
  0
LTYPE
  5
18
100
AcDbSymbolTableRecord
100
AcDbLinetypeTableRecord
  2
DASHED
 70
    64
  3
__ __ __ __ __ __ __ __ __ __ __ __ __ __ __ __
 72
    65
 73
     2
 40
0.75
 49
0.5
 74
     0
 49
-0.25
 74
     0
  0
LTYPE
  5
19
100
AcDbSymbolTableRecord
100
AcDbLinetypeTableRecord
  2
DASHDOT
 70
    64
  3
__ . __ . __ . __ . __ . __ . __ . __ . __ . __
 72
    65
 73
     4
 40
1.0
 49
0.5
 74
     0
 49
-0.25
 74
     0
 49
0.0
 74
     0
 49
-0.25
 74
     0
  0
LTYPE
  5
1A
100
AcDbSymbolTableRecord
100
AcDbLinetypeTableRecord
  2
DIVIDE
 70
    64
  3
____ . . ____ . . ____ . . ____ . . ____ . . __
 72
    65
 73
     6
 40
1.25
 49
0.5
 74
     0
 49
-0.25
 74
     0
 49
0.0
 74
     0
 49
-0.25
 74
     0
 49
0.0
 74
     0
 49
-0.25
 74
     0
  0
LTYPE
  5
1B
100
AcDbSymbolTableRecord
100
AcDbLinetypeTableRecord
  2
DOT
 70
    64
  3
. . . . . . . . . . . . . . . . . . . . . . . .
 72
    65
 73
     2
 40
0.25
 49
0.0
 74
     0
 49
-0.25
 74
     0
  0
ENDTAB
  0
TABLE
  2
LAYER
  5
2
100
AcDbSymbolTable
 70
   102
  0
LAYER
  5
F
100
AcDbSymbolTableRecord
100
AcDbLayerTableRecord
  2
0
 70
     0
 62
     7
  6
CONTINUOUS
370
     -3
390
F
  0
LAYER
  5
1C
100
AcDbSymbolTableRecord
100
AcDbLayerTableRecord
  2
M0
 70
     0
 62
     3
  6
CONTINUOUS
370
     -3
390
F
  0
LAYER
  5
1D
100
AcDbSymbolTableRecord
100
AcDbLayerTableRecord
  2
M69
 70
     0
 62
     7
  6
CONTINUOUS
370
     -3
390
F
  0
LAYER
  5
1E
100
AcDbSymbolTableRecord
100
AcDbLayerTableRecord
  2
M71
 70
     0
 62
     7
  6
CONTINUOUS
370
     -3
390
F
  0
LAYER
  5
1F
100
AcDbSymbolTableRecord
100
AcDbLayerTableRecord
  2
M73
 70
     0
 62
     7
  6
CONTINUOUS
370
     -3
390
F
  0
LAYER
  5
20
100
AcDbSymbolTableRecord
100
AcDbLayerTableRecord
  2
M74
 70
     0
 62
     7
  6
CONTINUOUS
370
     -3
390
F
  0
LAYER
  5
21
100
AcDbSymbolTableRecord
100
AcDbLayerTableRecord
  2
M75
 70
     0
 62
     7
  6
CONTINUOUS
370
     -3
390
F
  0
LAYER
  5
22
100
AcDbSymbolTableRecord
100
AcDbLayerTableRecord
  2
M79
 70
     0
 62
     7
  6
CONTINUOUS
370
     -3
390
F
  0
LAYER
  5
23
100
AcDbSymbolTableRecord
100
AcDbLayerTableRecord
  2
DD0
 70
     0
 62
     7
  6
CONTINUOUS
370
     -3
390
F
  0
ENDTAB
  0
TABLE
  2
STYLE
  5
3
100
AcDbSymbolTable
 70
     2
  0
STYLE
  5
10
100
AcDbSymbolTableRecord
100
AcDbTextStyleTableRecord
  2
STANDARD
 70
     0
 40
0.0
 41
1.0
 50
0.0
 71
     0
 42
0.2
  3
txt
  4
BIGFONT
  0
ENDTAB
  0
TABLE
  2
VIEW
  5
6
100
AcDbSymbolTable
 70
     0
  0
ENDTAB
  0
TABLE
  2
UCS
  5
7
100
AcDbSymbolTable
 70
     0
  0
ENDTAB
  0
TABLE
  2
APPID
  5
9
100
AcDbSymbolTable
 70
     1
  0
APPID
  5
11
100
AcDbSymbolTableRecord
100
AcDbRegAppTableRecord
  2
ACAD
 70
     0
  0
ENDTAB
  0
TABLE
  2
DIMSTYLE
  5
A
100
AcDbSymbolTable
 70
     2
100
AcDbDimStyleTable
 71
     1
  0
DIMSTYLE
105
5F
100
AcDbSymbolTableRecord
100
AcDbDimStyleTableRecord
  2
STANDARD
 70
     0
  3

  4

  5

  6
_OPEN
  7
_OPEN
 40
1.0
 41
3.0
 42
0.0
 43
8.0
 44
1.5
 45
0.0
 46
0.0
 47
0.0
 48
0.0
140
3.2
141
0.09
142
0.0
143
0.03937
144
1.0
145
0.0
146
1.0
147
1.0
148
0.000000
 71
     0
 72
     0
 73
     1
 74
     1
 75
     0
 76
     0
 77
     3
 78
     8
170
     0
171
     2
172
     0
173
     1
174
     0
175
     0
176
     0
177
     0
178
     0
270
     2
271
     2
272
     4
273
     2
274
     2
340
10
275
     0
278
    46
280
     0
281
     0
282
     0
283
     1
284
     0
285
     0
286
     0
287
     3
288
     0
371
   13
372
   13
  0
DIMSTYLE
105
60
100
AcDbSymbolTableRecord
100
AcDbDimStyleTableRecord
  2
LEADSTYL
 70
     0
  3

  4

  5

  6
_OPEN
  7
_OPEN
 40
1.0
 41
3.0
 42
0.0625
 43
0.38
 44
0.18
 45
0.0
 46
0.0
 47
0.0
 48
0.0
140
3.2
141
0.09
142
0.0
143
25.4
144
1.0
145
0.0
146
1.0
147
1.0
 71
     0
 72
     0
 73
     1
 74
     1
 75
     0
 76
     0
 77
     0
 78
     0
170
     0
171
     2
172
     0
173
     1
174
     0
175
     0
176
     0
177
     0
178
     0
270
     2
271
     4
272
     4
273
     2
274
     2
340
10
275
     0
280
     0
281
     0
282
     0
283
     1
284
     0
285
     0
286
     0
287
     3
288
     0
  0
ENDTAB
  0
TABLE
  2
BLOCK_RECORD
  5
1
100
AcDbSymbolTable
 70
     6
  0
BLOCK_RECORD
  5
24
100
AcDbSymbolTableRecord
100
AcDbBlockTableRecord
  2
*MODEL_SPACE
  0
BLOCK_RECORD
  5
27
100
AcDbSymbolTableRecord
100
AcDbBlockTableRecord
  2
*PAPER_SPACE
  0
BLOCK_RECORD
  5
2A
100
AcDbSymbolTableRecord
100
AcDbBlockTableRecord
  2
_NONE
  0
BLOCK_RECORD
  5
2E
100
AcDbSymbolTableRecord
100
AcDbBlockTableRecord
  2
_OPEN
  0
BLOCK_RECORD
  5
34
100
AcDbSymbolTableRecord
100
AcDbBlockTableRecord
  2
_CLOSED
  0
BLOCK_RECORD
  5
3B
100
AcDbSymbolTableRecord
100
AcDbBlockTableRecord
  2
_ORIGIN
  0
BLOCK_RECORD
  5
40
100
AcDbSymbolTableRecord
100
AcDbBlockTableRecord
  2
_DOT
  0
BLOCK_RECORD
  5
48
100
AcDbSymbolTableRecord
100
AcDbBlockTableRecord
  2
_OBLIQUE
  0
ENDTAB
  0
ENDSEC
  0
SECTION
  2
BLOCKS
  0
BLOCK
  5
25
100
AcDbEntity
  8
0
100
AcDbBlockBegin
  2
*MODEL_SPACE
 70
     0
 10
0.0
 20
0.0
 30
0.0
  3
*MODEL_SPACE
  1

  0
ENDBLK
  5
26
100
AcDbEntity
  8
0
100
AcDbBlockEnd
  0
BLOCK
  5
28
100
AcDbEntity
 67
     1
  8
0
100
AcDbBlockBegin
  2
*PAPER_SPACE
 70
     0
 10
0.0
 20
0.0
 30
0.0
  3
*PAPER_SPACE
  1

  0
ENDBLK
  5
29
100
AcDbEntity
 67
     1
  8
0
100
AcDbBlockEnd
  0
BLOCK
  5
2B
100
AcDbEntity
  8
0
100
AcDbBlockBegin
  2
_NONE
 70
     0
 10
0.0
 20
0.0
  0
CIRCLE
  5
2C
100
AcDbEntity
  8
0
 62
     0
370
13
100
AcDbCircle
 10
0.0
 20
0.0
 40
0.25
  0
ENDBLK
  5
2D
100
AcDbEntity
  8
0
100
AcDbBlockEnd
  0
BLOCK
  5
2F
100
AcDbEntity
  8
0
100
AcDbBlockBegin
  2
_OPEN
 70
     0
 10
0.0
 20
0.0
  0
LINE
  5
30
100
AcDbEntity
  8
0
 62
     0
370
13
100
AcDbLine
 10
-0.965926
 20
0.258819
 11
0.0
 21
0.0
  0
LINE
  5
31
100
AcDbEntity
  8
0
 62
     0
370
13
100
AcDbLine
 10
0.0
 20
0.0
 11
-0.965926
 21
-0.258819
  0
LINE
  5
32
100
AcDbEntity
  8
0
 62
     0
370
13
100
AcDbLine
 10
0.0
 20
0.0
 11
-1.0
 21
0.0
  0
ENDBLK
  5
33
100
AcDbEntity
  8
0
100
AcDbBlockEnd
  0
BLOCK
  5
35
100
AcDbEntity
  8
0
100
AcDbBlockBegin
  2
_CLOSED
 70
     0
 10
0.0
 20
0.0
  0
LINE
  5
36
100
AcDbEntity
  8
0
 62
     0
370
13
100
AcDbLine
 10
-0.965926
 20
0.258819
 11
0.0
 21
0.0
  0
LINE
  5
37
100
AcDbEntity
  8
0
 62
     0
370
13
100
AcDbLine
 10
0.0
 20
0.0
 11
-0.965926
 21
-0.258819
  0
LINE
  5
38
100
AcDbEntity
  8
0
 62
     0
370
13
100
AcDbLine
 10
-0.965926
 20
0.258819
 11
-0.965926
 21
-0.258819
  0
LINE
  5
39
100
AcDbEntity
  8
0
 62
     0
370
13
100
AcDbLine
 10
0.0
 20
0.0
 11
-1.0
 21
0.0
  0
ENDBLK
  5
3A
100
AcDbEntity
  8
0
100
AcDbBlockEnd
  0
BLOCK
  5
3C
100
AcDbEntity
  8
0
100
AcDbBlockBegin
  2
_ORIGIN
 70
     0
 10
0.0
 20
0.0
  0
CIRCLE
  5
3D
100
AcDbEntity
  8
0
 62
     0
370
13
100
AcDbCircle
 10
0.0
 20
0.0
 40
0.5
  0
LINE
  5
3E
100
AcDbEntity
  8
0
 62
     0
370
13
100
AcDbLine
 10
0.0
 20
0.0
 11
-1.0
 21
0.0
  0
ENDBLK
  5
3F
100
AcDbEntity
  8
0
100
AcDbBlockEnd
  0
BLOCK
  5
41
100
AcDbEntity
  8
0
100
AcDbBlockBegin
  2
_DOT
 70
     0
 10
0.0
 20
0.0
  0
POLYLINE
  5
42
100
AcDbEntity
  8
0
 62
     0
100
AcDb2dPolyline
 66
     1
 70
     1
 40
0.5
 41
0.5
  0
VERTEX
  5
43
100
AcDbEntity
  8
0
 62
     0
100
AcDbVertex
100
AcDb2dVertex
 10
-0.25
 20
0.0
 42
1.0
  0
VERTEX
  5
44
100
AcDbEntity
  8
0
 62
     0
100
AcDbVertex
100
AcDb2dVertex
 10
0.25
 20
0.0
 42
1.0
  0
SEQEND
  5
45
100
AcDbEntity
  8
0
 62
     0
  0
LINE
  5
46
100
AcDbEntity
  8
0
 62
     0
370
13
100
AcDbLine
 10
-0.5
 20
0.0
 11
-1.0
 21
0.0
  0
ENDBLK
  5
47
100
AcDbEntity
  8
0
100
AcDbBlockEnd
  0
BLOCK
  5
49
100
AcDbEntity
  8
0
100
AcDbBlockBegin
  2
_OBLIQUE
 70
     0
 10
0.0
 20
0.0
  0
LINE
  5
4A
100
AcDbEntity
  8
0
 62
     0
370
13
100
AcDbLine
 10
-0.353553
 20
-0.353553
 11
0.353553
 21
0.353553
  0
ENDBLK
  5
4B
100
AcDbEntity
  8
0
100
AcDbBlockEnd
  0
ENDSEC
  0
SECTION
  2
ENTITIES
  0
LEADER
  5
4C
102
{ACAD_XDICTIONARY
360
4D
102
}
102
{ACAD_REACTORS
330
4E
102
}
330
1F
100
AcDbEntity
  8
DD0
100
AcDbLeader
  3
LEADSTYL
 76
     2
 10
157.731384
 20
166.864319
 10
177.983307
 20
198.591904
 77
     7
1001
ACAD
1000
DSTYLE
1002
{
1070
   341
1005
2E
1070
   372
1070
   13
1070
   371
1070
   13
1002
}
  0
LEADER
  5
50
102
{ACAD_XDICTIONARY
360
51
102
}
102
{ACAD_REACTORS
330
52
102
}
330
1F
100
AcDbEntity
  8
DD0
100
AcDbLeader
  3
LEADSTYL
 76
     3
 10
157.731384
 20
183.809738
 10
177.983322
 20
198.591919
 10
212.583328
 20
198.591919
340
54
 77
     7
1001
ACAD
1000
DSTYLE
1002
{
1070
   341
1005
2E
1070
   372
1070
   13
1070
   371
1070
   13
1002
}
  0
TEXT
  5
54
100
AcDbEntity
  8
DD0
100
AcDbText
 10
181.621652
 20
199.591919
 40
4.0
  1
凍結防止ヒータ
 41
0.833333
  7
STANDARD
100
AcDbText
  0
LEADER
  5
55
102
{ACAD_XDICTIONARY
360
56
102
}
102
{ACAD_REACTORS
330
57
102
}
330
1F
100
AcDbEntity
  8
DD0
100
AcDbLeader
  3
LEADSTYL
 76
     3
 10
166.830261
 20
241.94455
 10
179.707947
 20
256.056763
 10
262.307953
 20
256.056763
340
59
 77
     7
1001
ACAD
1000
DSTYLE
1002
{
1070
   341
1005
2E
1070
   372
1070
   13
1070
   371
1070
   13
1002
}
  0
TEXT
  5
59
100
AcDbEntity
  8
DD0
100
AcDbText
 10
183.346276
 20
257.056763
 40
4.0
  1
バイメタルサーモ
 41
0.833333
  7
STANDARD
100
AcDbText
  0
TEXT
  5
5A
100
AcDbEntity
  8
DD0
100
AcDbText
 10
183.346276
 20
251.056763
 40
4.0
  1
（ＯＮ：５±３℃　ＯＦＦ：１３±５℃）
 41
0.833333
  7
STANDARD
100
AcDbText
  0
LEADER
  5
5B
102
{ACAD_XDICTIONARY
360
5C
102
}
102
{ACAD_REACTORS
330
5D
102
}
330
1F
100
AcDbEntity
  8
DD0
100
AcDbLeader
  3
LEADSTYL
 76
     2
 10
157.731384
 20
203.919739
 10
177.983322
 20
198.591919
 77
     7
1001
ACAD
1000
DSTYLE
1002
{
1070
   341
1005
2E
1070
   372
1070
   13
1070
   371
1070
   13
1002
}
  0
LINE
  5
61
100
AcDbEntity
  8
M0
  6
CONTINUOUS
370
13
 62
     7
100
AcDbLine
 10
280.845215
 20
167.070262
 11
280.845215
 21
182.277465
  0
LINE
  5
62
100
AcDbEntity
  8
M0
  6
CONTINUOUS
370
13
 62
     7
100
AcDbLine
 10
270.88521
 20
170.721418
 11
270.88521
 21
176.696037
  0
LINE
  5
63
100
AcDbEntity
  8
M0
  6
CONTINUOUS
370
13
 62
     7
100
AcDbLine
 10
267.565978
 20
176.696037
 11
269.557517
 21
176.696037
  0
LINE
  5
64
100
AcDbEntity
  8
M0
  6
CONTINUOUS
370
13
 62
     7
100
AcDbLine
 10
265.810294
 20
173.344804
 11
265.810294
 21
171.187303
  0
LINE
  5
65
100
AcDbEntity
  8
M0
  6
CONTINUOUS
370
13
 62
     7
100
AcDbLine
 10
264.648562
 20
171.187303
 11
265.810294
 21
171.187303
  0
LINE
  5
66
100
AcDbEntity
  8
M0
  6
CONTINUOUS
370
13
 62
     7
100
AcDbLine
 10
280.845215
 20
182.277465
 11
259.599819
 21
182.277465
  0
LINE
  5
67
100
AcDbEntity
  8
M0
  6
CONTINUOUS
370
13
 62
     7
100
AcDbLine
 10
264.648562
 20
173.344804
 11
264.648562
 21
171.187303
  0
LINE
  5
68
100
AcDbEntity
  8
M0
  6
CONTINUOUS
370
13
 62
     7
100
AcDbLine
 10
267.967795
 20
171.187303
 11
269.129527
 21
171.187303
  0
LINE
  5
69
100
AcDbEntity
  8
M0
  6
CONTINUOUS
370
13
 62
     7
100
AcDbLine
 10
267.967795
 20
173.344804
 11
269.129527
 21
173.344804
  0
LINE
  5
6A
100
AcDbEntity
  8
M0
  6
CONTINUOUS
370
13
 62
     7
100
AcDbLine
 10
267.967795
 20
173.344804
 11
267.967795
 21
171.187303
  0
LINE
  5
6B
100
AcDbEntity
  8
M0
  6
CONTINUOUS
370
13
 62
     7
100
AcDbLine
 10
269.129527
 20
173.344804
 11
269.129527
 21
171.187303
  0
LINE
  5
6C
100
AcDbEntity
  8
M0
  6
CONTINUOUS
370
13
 62
     7
100
AcDbLine
 10
264.648562
 20
173.344804
 11
265.810294
 21
173.344804
  0
LINE
  5
6D
100
AcDbEntity
  8
M0
  6
CONTINUOUS
370
13
 62
     7
100
AcDbLine
 10
266.238284
 20
170.721418
 11
266.238284
 21
176.696037
  0
LINE
  5
6E
100
AcDbEntity
  8
M0
  6
CONTINUOUS
370
13
 62
     7
100
AcDbLine
 10
259.599819
 20
167.070262
 11
280.845215
 21
167.070262
  0
LINE
  5
6F
100
AcDbEntity
  8
M0
  6
CONTINUOUS
370
13
 62
     7
100
AcDbLine
 10
260.927512
 20
170.721418
 11
262.919052
 21
170.721418
  0
LINE
  5
70
100
AcDbEntity
  8
M0
  6
CONTINUOUS
370
13
 62
     7
100
AcDbLine
 10
269.557517
 20
170.721418
 11
269.557517
 21
176.696037
  0
LINE
  5
71
100
AcDbEntity
  8
M0
  6
CONTINUOUS
370
13
 62
     7
100
AcDbLine
 10
264.246745
 20
170.721418
 11
264.246745
 21
176.696037
  0
LINE
  5
72
100
AcDbEntity
  8
M0
  6
CONTINUOUS
370
13
 62
     7
100
AcDbLine
 10
270.88521
 20
173.708728
 11
272.87675
 21
173.708728
  0
LINE
  5
73
100
AcDbEntity
  8
M0
  6
CONTINUOUS
370
13
 62
     7
100
AcDbLine
 10
270.88521
 20
176.696037
 11
272.87675
 21
176.696037
  0
LINE
  5
74
100
AcDbEntity
  8
M0
  6
CONTINUOUS
370
13
 62
     7
100
AcDbLine
 10
267.565978
 20
170.721418
 11
267.565978
 21
176.696037
  0
LINE
  5
75
100
AcDbEntity
  8
M0
  6
CONTINUOUS
370
13
 62
     7
100
AcDbLine
 10
260.927512
 20
176.696037
 11
262.919052
 21
176.696037
  0
LINE
  5
76
100
AcDbEntity
  8
M0
  6
CONTINUOUS
370
13
 62
     7
100
AcDbLine
 10
259.599819
 20
182.277465
 11
259.599819
 21
167.070262
  0
LINE
  5
77
100
AcDbEntity
  8
M0
  6
CONTINUOUS
370
13
 62
     7
100
AcDbLine
 10
264.246745
 20
176.696037
 11
266.238284
 21
176.696037
  0
LINE
  5
78
100
AcDbEntity
  8
M0
  6
CONTINUOUS
370
13
 62
     7
100
AcDbLine
 10
262.919052
 20
170.721418
 11
262.919052
 21
176.696037
  0
LINE
  5
79
100
AcDbEntity
  8
M0
  6
CONTINUOUS
370
13
 62
     7
100
AcDbLine
 10
272.87675
 20
170.721418
 11
272.87675
 21
176.696037
  0
LINE
  5
7A
100
AcDbEntity
  8
M0
  6
CONTINUOUS
370
13
 62
     7
100
AcDbLine
 10
260.927512
 20
170.721418
 11
260.927512
 21
176.696037
  0
LINE
  5
7B
100
AcDbEntity
  8
M0
  6
CONTINUOUS
370
13
 62
     7
100
AcDbLine
 10
267.565978
 20
170.721418
 11
269.557517
 21
170.721418
  0
LINE
  5
7C
100
AcDbEntity
  8
M0
  6
CONTINUOUS
370
13
 62
     7
100
AcDbLine
 10
270.88521
 20
170.721418
 11
272.87675
 21
170.721418
  0
LINE
  5
7D
100
AcDbEntity
  8
M0
  6
CONTINUOUS
370
13
 62
     7
100
AcDbLine
 10
264.246745
 20
170.721418
 11
266.238284
 21
170.721418
  0
LINE
  5
7E
100
AcDbEntity
  8
M0
  6
CONTINUOUS
370
13
 62
     7
100
AcDbLine
 10
271.287028
 20
173.344804
 11
271.287028
 21
171.187303
  0
LINE
  5
7F
100
AcDbEntity
  8
M0
  6
CONTINUOUS
370
13
 62
     7
100
AcDbLine
 10
272.448759
 20
173.344804
 11
272.448759
 21
171.187303
  0
LINE
  5
80
100
AcDbEntity
  8
M0
  6
CONTINUOUS
370
13
 62
     7
100
AcDbLine
 10
271.287028
 20
171.187303
 11
272.448759
 21
171.187303
  0
LINE
  5
81
100
AcDbEntity
  8
M0
  6
CONTINUOUS
370
13
 62
     7
100
AcDbLine
 10
271.287028
 20
173.344804
 11
272.448759
 21
173.344804
  0
LINE
  5
82
100
AcDbEntity
  8
M0
  6
CONTINUOUS
370
13
 62
     7
100
AcDbLine
 10
267.565978
 20
173.708728
 11
269.557517
 21
173.708728
  0
LINE
  5
83
100
AcDbEntity
  8
M0
  6
CONTINUOUS
370
13
 62
     7
100
AcDbLine
 10
264.234245
 20
173.702884
 11
266.225784
 21
173.702884
  0
LINE
  5
84
100
AcDbEntity
  8
M0
  6
CONTINUOUS
370
13
 62
     7
100
AcDbLine
 10
260.927512
 20
173.708728
 11
262.919052
 21
173.708728
  0
LINE
  5
85
100
AcDbEntity
  8
M0
  6
CONTINUOUS
370
13
 62
     7
100
AcDbLine
 10
277.925493
 20
173.344804
 11
277.925493
 21
171.187303
  0
LINE
  5
86
100
AcDbEntity
  8
M0
  6
CONTINUOUS
370
13
 62
     7
100
AcDbLine
 10
279.087225
 20
173.344804
 11
279.087225
 21
171.187303
  0
LINE
  5
87
100
AcDbEntity
  8
M0
  6
CONTINUOUS
370
13
 62
     7
100
AcDbLine
 10
274.204443
 20
170.721418
 11
276.195982
 21
170.721418
  0
LINE
  5
88
100
AcDbEntity
  8
M0
  6
CONTINUOUS
370
13
 62
     7
100
AcDbLine
 10
277.523676
 20
170.721418
 11
279.515215
 21
170.721418
  0
LINE
  5
89
100
AcDbEntity
  8
M0
  6
CONTINUOUS
370
13
 62
     7
100
AcDbLine
 10
279.515215
 20
170.721418
 11
279.515215
 21
176.696037
  0
LINE
  5
8A
100
AcDbEntity
  8
M0
  6
CONTINUOUS
370
13
 62
     7
100
AcDbLine
 10
277.925493
 20
173.344804
 11
279.087225
 21
173.344804
  0
LINE
  5
8B
100
AcDbEntity
  8
M0
  6
CONTINUOUS
370
13
 62
     7
100
AcDbLine
 10
274.204443
 20
173.708728
 11
276.195982
 21
173.708728
  0
LINE
  5
8C
100
AcDbEntity
  8
M0
  6
CONTINUOUS
370
13
 62
     7
100
AcDbLine
 10
277.925493
 20
171.187303
 11
279.087225
 21
171.187303
  0
LINE
  5
8D
100
AcDbEntity
  8
M0
  6
CONTINUOUS
370
13
 62
     7
100
AcDbLine
 10
274.60626
 20
173.344804
 11
275.767992
 21
173.344804
  0
LINE
  5
8E
100
AcDbEntity
  8
M0
  6
CONTINUOUS
370
13
 62
     7
100
AcDbLine
 10
274.60626
 20
173.344804
 11
274.60626
 21
171.187303
  0
LINE
  5
8F
100
AcDbEntity
  8
M0
  6
CONTINUOUS
370
13
 62
     7
100
AcDbLine
 10
274.204443
 20
176.696037
 11
276.195982
 21
176.696037
  0
LINE
  5
90
100
AcDbEntity
  8
M0
  6
CONTINUOUS
370
13
 62
     7
100
AcDbLine
 10
274.60626
 20
171.187303
 11
275.767992
 21
171.187303
  0
LINE
  5
91
100
AcDbEntity
  8
M0
  6
CONTINUOUS
370
13
 62
     7
100
AcDbLine
 10
277.523676
 20
170.721418
 11
277.523676
 21
176.696037
  0
LINE
  5
92
100
AcDbEntity
  8
M0
  6
CONTINUOUS
370
13
 62
     7
100
AcDbLine
 10
277.523676
 20
176.696037
 11
279.515215
 21
176.696037
  0
LINE
  5
93
100
AcDbEntity
  8
M0
  6
CONTINUOUS
370
13
 62
     7
100
AcDbLine
 10
274.204443
 20
170.721418
 11
274.204443
 21
176.696037
  0
LINE
  5
94
100
AcDbEntity
  8
M0
  6
CONTINUOUS
370
13
 62
     7
100
AcDbLine
 10
276.195982
 20
170.721418
 11
276.195982
 21
176.696037
  0
LINE
  5
95
100
AcDbEntity
  8
M0
  6
CONTINUOUS
370
13
 62
     7
100
AcDbLine
 10
277.523676
 20
173.708728
 11
279.515215
 21
173.708728
  0
LINE
  5
96
100
AcDbEntity
  8
M0
  6
CONTINUOUS
370
13
 62
     7
100
AcDbLine
 10
275.767992
 20
173.344804
 11
275.767992
 21
171.187303
  0
TEXT
  5
97
100
AcDbEntity
  8
M0
 62
     7
100
AcDbText
 10
271.009112
 20
176.690193
 40
2.619344
  1
４
 41
0.645833
  7
STANDARD
100
AcDbText
  0
TEXT
  5
98
100
AcDbEntity
  8
M0
 62
     7
100
AcDbText
 10
261.116335
 20
176.66758
 40
2.619344
  1
１
 41
0.645833
  7
STANDARD
100
AcDbText
  0
TEXT
  5
99
100
AcDbEntity
  8
M0
 62
     7
100
AcDbText
 10
260.199755
 20
179.360176
 40
2.619344
  1
ＯＮ
 41
0.645833
  7
STANDARD
100
AcDbText
  0
TEXT
  5
9A
100
AcDbEntity
  8
M0
 62
     7
100
AcDbText
 10
267.689882
 20
176.690193
 40
2.619344
  1
３
 41
0.645833
  7
STANDARD
100
AcDbText
  0
TEXT
  5
9B
100
AcDbEntity
  8
M0
 62
     7
100
AcDbText
 10
264.370669
 20
176.690193
 40
2.619344
  1
２
 41
0.645833
  7
STANDARD
100
AcDbText
  0
TEXT
  5
9C
100
AcDbEntity
  8
M0
 62
     7
100
AcDbText
 10
259.977303
 20
184.259457
 40
2.910382
  1
＜ＳＷ２０１＞
 41
0.645833
  7
STANDARD
100
AcDbText
  0
TEXT
  5
9D
100
AcDbEntity
  8
M0
 62
     7
100
AcDbText
 10
277.647577
 20
176.690193
 40
2.619344
  1
６
 41
0.645833
  7
STANDARD
100
AcDbText
  0
TEXT
  5
9E
100
AcDbEntity
  8
M0
 62
     7
100
AcDbText
 10
274.328348
 20
176.690193
 40
2.619344
  1
５
 41
0.645833
  7
STANDARD
100
AcDbText
  0
LINE
  5
9F
100
AcDbEntity
  8
M0
  6
CONTINUOUS
370
13
 62
     7
100
AcDbLine
 10
292.452731
 20
166.277465
 11
338.442493
 21
166.277465
  0
LINE
  5
A0
100
AcDbEntity
  8
M0
  6
CONTINUOUS
370
13
 62
     7
100
AcDbLine
 10
292.452731
 20
174.277465
 11
338.442493
 21
174.277465
  0
LINE
  5
A1
100
AcDbEntity
  8
M0
  6
CONTINUOUS
370
13
 62
     7
100
AcDbLine
 10
297.5459
 20
170.277465
 11
338.442493
 21
170.277465
  0
LINE
  5
A2
100
AcDbEntity
  8
M0
  6
CONTINUOUS
370
13
 62
     7
100
AcDbLine
 10
292.452731
 20
150.277465
 11
338.442493
 21
150.277465
  0
LINE
  5
A3
100
AcDbEntity
  8
M0
  6
CONTINUOUS
370
13
 62
     7
100
AcDbLine
 10
297.5459
 20
162.277465
 11
338.442493
 21
162.277465
  0
LINE
  5
A4
100
AcDbEntity
  8
M0
  6
CONTINUOUS
370
13
 62
     7
100
AcDbLine
 10
297.5459
 20
134.277465
 11
297.5459
 21
182.277465
  0
LINE
  5
A5
100
AcDbEntity
  8
M0
  6
CONTINUOUS
370
13
 62
     7
100
AcDbLine
 10
292.452731
 20
182.277465
 11
292.452731
 21
134.277465
  0
LINE
  5
A6
100
AcDbEntity
  8
M0
  6
CONTINUOUS
370
13
 62
     7
100
AcDbLine
 10
292.452731
 20
158.277465
 11
338.442493
 21
158.277465
  0
LINE
  5
A7
100
AcDbEntity
  8
M0
  6
CONTINUOUS
370
13
 62
     7
100
AcDbLine
 10
297.5459
 20
178.277465
 11
338.442493
 21
178.277465
  0
LINE
  5
A8
100
AcDbEntity
  8
M0
  6
CONTINUOUS
370
13
 62
     7
100
AcDbLine
 10
305.549451
 20
134.277465
 11
305.549451
 21
182.277465
  0
LINE
  5
A9
100
AcDbEntity
  8
M0
  6
CONTINUOUS
370
13
 62
     7
100
AcDbLine
 10
297.5459
 20
154.277465
 11
338.442493
 21
154.277465
  0
LINE
  5
AA
100
AcDbEntity
  8
M0
  6
CONTINUOUS
370
13
 62
     7
100
AcDbLine
 10
292.452731
 20
182.277465
 11
338.442493
 21
182.277465
  0
LINE
  5
AB
100
AcDbEntity
  8
M0
  6
CONTINUOUS
370
13
 62
     7
100
AcDbLine
 10
338.442493
 20
182.277465
 11
338.442493
 21
134.277465
  0
LINE
  5
AC
100
AcDbEntity
  8
M0
  6
CONTINUOUS
370
13
 62
     7
100
AcDbLine
 10
316.705776
 20
172.277463
 11
324.740327
 21
172.277463
  0
LINE
  5
AD
100
AcDbEntity
  8
M0
  6
CONTINUOUS
370
13
 62
     7
100
AcDbLine
 10
316.705776
 20
164.277463
 11
324.740327
 21
164.277463
  0
LINE
  5
AE
100
AcDbEntity
  8
M0
  6
CONTINUOUS
370
13
 62
     7
100
AcDbLine
 10
316.705776
 20
156.277463
 11
324.740327
 21
156.277463
  0
LINE
  5
AF
100
AcDbEntity
  8
M0
  6
CONTINUOUS
370
13
 62
     7
100
AcDbLine
 10
297.5459
 20
138.277465
 11
338.442493
 21
138.277465
  0
LINE
  5
B0
100
AcDbEntity
  8
M0
  6
CONTINUOUS
370
13
 62
     7
100
AcDbLine
 10
297.5459
 20
146.277465
 11
338.442493
 21
146.277465
  0
LINE
  5
B1
100
AcDbEntity
  8
M0
  6
CONTINUOUS
370
13
 62
     7
100
AcDbLine
 10
316.705776
 20
148.277463
 11
324.740327
 21
148.277463
  0
LINE
  5
B2
100
AcDbEntity
  8
M0
  6
CONTINUOUS
370
13
 62
     7
100
AcDbLine
 10
316.705776
 20
140.277463
 11
324.740327
 21
140.277463
  0
LINE
  5
B3
100
AcDbEntity
  8
M0
  6
CONTINUOUS
370
13
 62
     7
100
AcDbLine
 10
292.452731
 20
134.277465
 11
338.442493
 21
134.277465
  0
LINE
  5
B4
100
AcDbEntity
  8
M0
  6
CONTINUOUS
370
13
 62
     7
100
AcDbLine
 10
297.5459
 20
142.277465
 11
338.442493
 21
142.277465
  0
LINE
  5
B5
100
AcDbEntity
  8
M0
  6
CONTINUOUS
370
13
 62
     7
100
AcDbLine
 10
292.452731
 20
116.156641
 11
338.442493
 21
116.156641
  0
LINE
  5
B6
100
AcDbEntity
  8
M0
  6
CONTINUOUS
370
13
 62
     7
100
AcDbLine
 10
316.705776
 20
122.156639
 11
324.740327
 21
122.156639
  0
LINE
  5
B7
100
AcDbEntity
  8
M0
  6
CONTINUOUS
370
13
 62
     7
100
AcDbLine
 10
292.452731
 20
124.156641
 11
338.442493
 21
124.156641
  0
LINE
  5
B8
100
AcDbEntity
  8
M0
  6
CONTINUOUS
370
13
 62
     7
100
AcDbLine
 10
297.5459
 20
120.156641
 11
338.442493
 21
120.156641
  0
LINE
  5
B9
100
AcDbEntity
  8
M0
  6
CONTINUOUS
370
13
 62
     7
100
AcDbLine
 10
292.452731
 20
124.156641
 11
292.452731
 21
116.156641
  0
LINE
  5
BA
100
AcDbEntity
  8
M0
  6
CONTINUOUS
370
13
 62
     7
100
AcDbLine
 10
297.5459
 20
116.156641
 11
297.5459
 21
124.156641
  0
LINE
  5
BB
100
AcDbEntity
  8
M0
  6
CONTINUOUS
370
13
 62
     7
100
AcDbLine
 10
305.549451
 20
116.156641
 11
305.549451
 21
124.156641
  0
LINE
  5
BC
100
AcDbEntity
  8
M0
  6
CONTINUOUS
370
13
 62
     7
100
AcDbLine
 10
338.442493
 20
124.156641
 11
338.442493
 21
116.156641
  0
TEXT
  5
BD
100
AcDbEntity
  8
M0
 62
     7
100
AcDbText
 10
294.316252
 20
168.822281
 40
2.910382
  1
２
 41
0.625
  7
STANDARD
100
AcDbText
  0
TEXT
  5
BE
100
AcDbEntity
  8
M0
 62
     7
100
AcDbText
 10
294.316252
 20
176.822281
 40
2.910382
  1
１
 41
0.625
  7
STANDARD
100
AcDbText
  0
TEXT
  5
BF
100
AcDbEntity
  8
M0
 62
     7
100
AcDbText
 10
294.316252
 20
160.822281
 40
2.910382
  1
３
 41
0.625
  7
STANDARD
100
AcDbText
  0
TEXT
  5
C0
100
AcDbEntity
  8
M0
 62
     7
100
AcDbText
 10
294.316252
 20
152.822264
 40
2.910382
  1
４
 41
0.625
  7
STANDARD
100
AcDbText
  0
TEXT
  5
C1
100
AcDbEntity
  8
M0
 62
     7
100
AcDbText
 10
298.570799
 20
162.822281
 40
2.910382
  1
Ｏ　Ｎ
 41
0.625
  7
STANDARD
100
AcDbText
  0
TEXT
  5
C2
100
AcDbEntity
  8
M0
 62
     7
100
AcDbText
 10
298.570799
 20
158.822266
 40
2.910382
  1
ＯＦＦ
 41
0.625
  7
STANDARD
100
AcDbText
  0
TEXT
  5
C3
100
AcDbEntity
  8
M0
 62
     7
100
AcDbText
 10
298.570799
 20
150.822264
 40
2.910382
  1
ＯＦＦ
 41
0.625
  7
STANDARD
100
AcDbText
  0
TEXT
  5
C4
100
AcDbEntity
  8
M0
 62
     7
100
AcDbText
 10
298.570799
 20
178.822281
 40
2.910382
  1
Ｏ　Ｎ
 41
0.625
  7
STANDARD
100
AcDbText
  0
TEXT
  5
C5
100
AcDbEntity
  8
M0
 62
     7
100
AcDbText
 10
298.570799
 20
166.822266
 40
2.910382
  1
ＯＦＦ
 41
0.625
  7
STANDARD
100
AcDbText
  0
TEXT
  5
C6
100
AcDbEntity
  8
M0
 62
     7
100
AcDbText
 10
298.570799
 20
174.822266
 40
2.910382
  1
ＯＦＦ
 41
0.625
  7
STANDARD
100
AcDbText
  0
TEXT
  5
C7
100
AcDbEntity
  8
M0
 62
     7
100
AcDbText
 10
298.570799
 20
170.822281
 40
2.910382
  1
Ｏ　Ｎ
 41
0.625
  7
STANDARD
100
AcDbText
  0
TEXT
  5
C8
100
AcDbEntity
  8
M0
 62
     7
100
AcDbText
 10
298.570799
 20
154.822279
 40
2.910382
  1
Ｏ　Ｎ
 41
0.625
  7
STANDARD
100
AcDbText
  0
TEXT
  5
C9
100
AcDbEntity
  8
M0
 62
     7
100
AcDbText
 10
307.187455
 20
166.663864
 40
2.910382
  1
標準（出荷時）
 41
0.645833
  7
STANDARD
100
AcDbText
  0
TEXT
  5
CA
100
AcDbEntity
  8
M0
 62
     7
100
AcDbText
 10
307.187455
 20
158.663864
 40
2.910382
  1
標準（出荷時）
 41
0.645833
  7
STANDARD
100
AcDbText
  0
TEXT
  5
CB
100
AcDbEntity
  8
M0
 62
     7
100
AcDbText
 10
307.187455
 20
150.663862
 40
2.910382
  1
標準（出荷時）
 41
0.645833
  7
STANDARD
100
AcDbText
  0
TEXT
  5
CC
100
AcDbEntity
  8
M0
 62
     7
100
AcDbText
 10
294.316244
 20
144.822264
 40
2.910382
  1
５
 41
0.625
  7
STANDARD
100
AcDbText
  0
TEXT
  5
CD
100
AcDbEntity
  8
M0
 62
     7
100
AcDbText
 10
294.316244
 20
136.822263
 40
2.910382
  1
６
 41
0.625
  7
STANDARD
100
AcDbText
  0
TEXT
  5
CE
100
AcDbEntity
  8
M0
 62
     7
100
AcDbText
 10
298.570791
 20
146.822264
 40
2.910382
  1
Ｏ　Ｎ
 41
0.625
  7
STANDARD
100
AcDbText
  0
TEXT
  5
CF
100
AcDbEntity
  8
M0
 62
     7
100
AcDbText
 10
307.187455
 20
142.663861
 40
2.910382
  1
標準（出荷時）
 41
0.645833
  7
STANDARD
100
AcDbText
  0
TEXT
  5
D0
100
AcDbEntity
  8
M0
 62
     7
100
AcDbText
 10
298.570791
 20
134.822263
 40
2.910382
  1
ＯＦＦ
 41
0.625
  7
STANDARD
100
AcDbText
  0
TEXT
  5
D1
100
AcDbEntity
  8
M0
 62
     7
100
AcDbText
 10
307.187455
 20
134.663862
 40
2.910382
  1
標準（出荷時）
 41
0.645833
  7
STANDARD
100
AcDbText
  0
TEXT
  5
D2
100
AcDbEntity
  8
M0
 62
     7
100
AcDbText
 10
298.570791
 20
138.822263
 40
2.910382
  1
Ｏ　Ｎ
 41
0.625
  7
STANDARD
100
AcDbText
  0
TEXT
  5
D3
100
AcDbEntity
  8
M0
 62
     7
100
AcDbText
 10
298.570791
 20
142.822263
 40
2.910382
  1
ＯＦＦ
 41
0.625
  7
STANDARD
100
AcDbText
  0
TEXT
  5
D4
100
AcDbEntity
  8
M0
 62
     7
100
AcDbText
 10
294.316252
 20
118.701451
 40
2.910382
  1
１
 41
0.625
  7
STANDARD
100
AcDbText
  0
TEXT
  5
D5
100
AcDbEntity
  8
M0
 62
     7
100
AcDbText
 10
298.570799
 20
120.701452
 40
2.910382
  1
Ｏ　Ｎ
 41
0.625
  7
STANDARD
100
AcDbText
  0
TEXT
  5
D6
100
AcDbEntity
  8
M0
 62
     7
100
AcDbText
 10
298.570799
 20
116.701436
 40
2.910382
  1
ＯＦＦ
 41
0.625
  7
STANDARD
100
AcDbText
  0
TEXT
  5
D7
100
AcDbEntity
  8
M0
 62
     7
100
AcDbText
 10
307.187455
 20
116.543034
 40
2.910382
  1
標準（出荷時）
 41
0.645833
  7
STANDARD
100
AcDbText
  0
LINE
  5
D8
100
AcDbEntity
  8
M0
  6
CONTINUOUS
370
13
 62
     7
100
AcDbLine
 10
113.50907
 20
227.462985
 11
79.006925
 21
227.462985
  0
LINE
  5
D9
100
AcDbEntity
  8
M0
  6
CONTINUOUS
370
13
 62
     7
100
AcDbLine
 10
79.006925
 20
222.109941
 11
113.50907
 21
222.109941
  0
LINE
  5
DA
100
AcDbEntity
  8
M0
  6
CONTINUOUS
370
13
100
AcDbLine
 10
93.83602
 20
224.946774
 11
93.83602
 21
237.312806
  0
LINE
  5
DB
100
AcDbEntity
  8
M0
  6
CONTINUOUS
370
13
100
AcDbLine
 10
93.029095
 20
224.139849
 11
93.83602
 21
224.946774
  0
LINE
  5
DC
100
AcDbEntity
  8
M0
  6
CONTINUOUS
370
13
100
AcDbLine
 10
93.22599
 20
234.630144
 11
91.898459
 21
233.863694
  0
LINE
  5
DD
100
AcDbEntity
  8
M0
  6
CONTINUOUS
370
13
100
AcDbLine
 10
93.83602
 20
237.312806
 11
92.562224
 21
237.312806
  0
LINE
  5
DE
100
AcDbEntity
  8
M0
  6
DIVIDE
370
13
100
AcDbLine
 10
91.642467
 20
235.013455
 11
91.642467
 21
230.414669
  0
LINE
  5
DF
100
AcDbEntity
  8
M0
  6
CONTINUOUS
370
13
100
AcDbLine
 10
92.562224
 20
235.013369
 11
93.22599
 21
234.630144
  0
LINE
  5
E0
100
AcDbEntity
  8
M0
  6
CONTINUOUS
370
13
100
AcDbLine
 10
92.562224
 20
230.414669
 11
91.898459
 21
230.797894
  0
LINE
  5
E1
100
AcDbEntity
  8
M0
  6
CONTINUOUS
370
13
100
AcDbLine
 10
93.22599
 20
231.564344
 11
91.898459
 21
232.330794
  0
LINE
  5
E2
100
AcDbEntity
  8
M0
  6
CONTINUOUS
370
13
100
AcDbLine
 10
92.562224
 20
235.013369
 11
92.562224
 21
237.312806
  0
LINE
  5
E3
100
AcDbEntity
  8
M0
  6
CONTINUOUS
370
13
100
AcDbLine
 10
93.22599
 20
233.097244
 11
91.898459
 21
233.863694
  0
LINE
  5
E4
100
AcDbEntity
  8
M0
  6
CONTINUOUS
370
13
100
AcDbLine
 10
92.564549
 20
226.554601
 11
92.562224
 21
230.414669
  0
LINE
  5
E5
100
AcDbEntity
  8
M0
  6
CONTINUOUS
370
13
100
AcDbLine
 10
93.22599
 20
231.564344
 11
91.898459
 21
230.797894
  0
LINE
  5
E6
100
AcDbEntity
  8
M0
  6
CONTINUOUS
370
13
100
AcDbLine
 10
93.22599
 20
233.097244
 11
91.898459
 21
232.330794
  0
LINE
  5
E7
100
AcDbEntity
  8
M0
  6
DIVIDE
370
13
100
AcDbLine
 10
93.481982
 20
230.414669
 11
93.481982
 21
235.013455
  0
LINE
  5
E8
100
AcDbEntity
  8
M0
  6
CONTINUOUS
370
13
100
AcDbLine
 10
97.529468
 20
224.946774
 11
97.529468
 21
237.312806
  0
LINE
  5
E9
100
AcDbEntity
  8
M0
  6
CONTINUOUS
370
13
100
AcDbLine
 10
96.722543
 20
224.139849
 11
97.529468
 21
224.946774
  0
LINE
  5
EA
100
AcDbEntity
  8
M0
  6
CONTINUOUS
370
13
100
AcDbLine
 10
96.919438
 20
234.630144
 11
95.591907
 21
233.863694
  0
LINE
  5
EB
100
AcDbEntity
  8
M0
  6
CONTINUOUS
370
13
100
AcDbLine
 10
97.529468
 20
237.312806
 11
96.255672
 21
237.312806
  0
LINE
  5
EC
100
AcDbEntity
  8
M0
  6
DIVIDE
370
13
100
AcDbLine
 10
95.335915
 20
235.013455
 11
95.335915
 21
230.414669
  0
LINE
  5
ED
100
AcDbEntity
  8
M0
  6
CONTINUOUS
370
13
100
AcDbLine
 10
96.255672
 20
235.013369
 11
96.919438
 21
234.630144
  0
LINE
  5
EE
100
AcDbEntity
  8
M0
  6
CONTINUOUS
370
13
100
AcDbLine
 10
96.255672
 20
230.414669
 11
95.591907
 21
230.797894
  0
LINE
  5
EF
100
AcDbEntity
  8
M0
  6
CONTINUOUS
370
13
100
AcDbLine
 10
96.919438
 20
231.564344
 11
95.591907
 21
232.330794
  0
LINE
  5
F0
100
AcDbEntity
  8
M0
  6
CONTINUOUS
370
13
100
AcDbLine
 10
96.255672
 20
235.013369
 11
96.255672
 21
237.312806
  0
LINE
  5
F1
100
AcDbEntity
  8
M0
  6
CONTINUOUS
370
13
100
AcDbLine
 10
96.919438
 20
233.097244
 11
95.591907
 21
233.863694
  0
LINE
  5
F2
100
AcDbEntity
  8
M0
  6
CONTINUOUS
370
13
100
AcDbLine
 10
96.257997
 20
226.554601
 11
96.255672
 21
230.414669
  0
LINE
  5
F3
100
AcDbEntity
  8
M0
  6
CONTINUOUS
370
13
100
AcDbLine
 10
96.919438
 20
231.564344
 11
95.591907
 21
230.797894
  0
LINE
  5
F4
100
AcDbEntity
  8
M0
  6
CONTINUOUS
370
13
100
AcDbLine
 10
96.919438
 20
233.097244
 11
95.591907
 21
232.330794
  0
LINE
  5
F5
100
AcDbEntity
  8
M0
  6
DIVIDE
370
13
100
AcDbLine
 10
97.17543
 20
230.414669
 11
97.17543
 21
235.013455
  0
LINE
  5
F6
100
AcDbEntity
  8
M0
  6
CONTINUOUS
370
13
 62
     7
100
AcDbLine
 10
79.006925
 20
227.462985
 11
79.006925
 21
222.109941
  0
LINE
  5
F7
100
AcDbEntity
  8
M0
  6
CONTINUOUS
370
13
100
AcDbLine
 10
100.612886
 20
233.097244
 11
99.285355
 21
233.863694
  0
LINE
  5
F8
100
AcDbEntity
  8
M0
  6
CONTINUOUS
370
13
100
AcDbLine
 10
99.94912
 20
235.013369
 11
99.94912
 21
237.312806
  0
LINE
  5
F9
100
AcDbEntity
  8
M0
  6
CONTINUOUS
370
13
100
AcDbLine
 10
99.951445
 20
226.554601
 11
99.94912
 21
230.414669
  0
LINE
  5
FA
100
AcDbEntity
  8
M0
  6
CONTINUOUS
370
13
100
AcDbLine
 10
100.612886
 20
233.097244
 11
99.285355
 21
232.330794
  0
LINE
  5
FB
100
AcDbEntity
  8
M0
  6
CONTINUOUS
370
13
100
AcDbLine
 10
100.612886
 20
231.564344
 11
99.285355
 21
230.797894
  0
LINE
  5
FC
100
AcDbEntity
  8
M0
  6
CONTINUOUS
370
13
100
AcDbLine
 10
101.222916
 20
237.312806
 11
99.94912
 21
237.312806
  0
LINE
  5
FD
100
AcDbEntity
  8
M0
  6
CONTINUOUS
370
13
100
AcDbLine
 10
100.612886
 20
234.630144
 11
99.285355
 21
233.863694
  0
LINE
  5
FE
100
AcDbEntity
  8
M0
  6
CONTINUOUS
370
13
100
AcDbLine
 10
99.94912
 20
235.013369
 11
100.612886
 21
234.630144
  0
LINE
  5
FF
100
AcDbEntity
  8
M0
  6
CONTINUOUS
370
13
100
AcDbLine
 10
100.612886
 20
231.564344
 11
99.285355
 21
232.330794
  0
LINE
  5
100
100
AcDbEntity
  8
M0
  6
CONTINUOUS
370
13
100
AcDbLine
 10
99.94912
 20
230.414669
 11
99.285355
 21
230.797894
  0
LINE
  5
101
100
AcDbEntity
  8
M0
  6
DIVIDE
370
13
100
AcDbLine
 10
100.868878
 20
230.414669
 11
100.868878
 21
235.013455
  0
LINE
  5
102
100
AcDbEntity
  8
M0
  6
CONTINUOUS
370
13
100
AcDbLine
 10
100.415991
 20
224.139849
 11
101.222916
 21
224.946774
  0
LINE
  5
103
100
AcDbEntity
  8
M0
  6
CONTINUOUS
370
13
100
AcDbLine
 10
101.222916
 20
224.946774
 11
101.222916
 21
237.312806
  0
LINE
  5
104
100
AcDbEntity
  8
M0
  6
CONTINUOUS
370
13
100
AcDbLine
 10
104.306334
 20
231.564344
 11
102.978803
 21
232.330794
  0
LINE
  5
105
100
AcDbEntity
  8
M0
  6
CONTINUOUS
370
13
100
AcDbLine
 10
103.642568
 20
230.414669
 11
102.978803
 21
230.797894
  0
LINE
  5
106
100
AcDbEntity
  8
M0
  6
CONTINUOUS
370
13
100
AcDbLine
 10
104.306334
 20
234.630144
 11
102.978803
 21
233.863694
  0
LINE
  5
107
100
AcDbEntity
  8
M0
  6
CONTINUOUS
370
13
100
AcDbLine
 10
103.642568
 20
235.013369
 11
104.306334
 21
234.630144
  0
LINE
  5
108
100
AcDbEntity
  8
M0
  6
CONTINUOUS
370
13
100
AcDbLine
 10
104.916363
 20
224.946774
 11
104.916363
 21
237.312806
  0
LINE
  5
109
100
AcDbEntity
  8
M0
  6
DIVIDE
370
13
100
AcDbLine
 10
104.562326
 20
230.414669
 11
104.562326
 21
235.013455
  0
LINE
  5
10A
100
AcDbEntity
  8
M0
  6
CONTINUOUS
370
13
100
AcDbLine
 10
104.109438
 20
224.139849
 11
104.916363
 21
224.946774
  0
LINE
  5
10B
100
AcDbEntity
  8
M0
  6
CONTINUOUS
370
13
100
AcDbLine
 10
104.306334
 20
233.097244
 11
102.978803
 21
233.863694
  0
LINE
  5
10C
100
AcDbEntity
  8
M0
  6
CONTINUOUS
370
13
100
AcDbLine
 10
103.642568
 20
235.013369
 11
103.642568
 21
237.312806
  0
LINE
  5
10D
100
AcDbEntity
  8
M0
  6
CONTINUOUS
370
13
100
AcDbLine
 10
104.306334
 20
231.564344
 11
102.978803
 21
230.797894
  0
LINE
  5
10E
100
AcDbEntity
  8
M0
  6
CONTINUOUS
370
13
100
AcDbLine
 10
104.916363
 20
237.312806
 11
103.642568
 21
237.312806
  0
LINE
  5
10F
100
AcDbEntity
  8
M0
  6
CONTINUOUS
370
13
100
AcDbLine
 10
103.644893
 20
226.554601
 11
103.642568
 21
230.414669
  0
LINE
  5
110
100
AcDbEntity
  8
M0
  6
CONTINUOUS
370
13
100
AcDbLine
 10
104.306334
 20
233.097244
 11
102.978803
 21
232.330794
  0
CIRCLE
  5
111
100
AcDbEntity
  8
M0
  6
CONTINUOUS
370
13
100
AcDbCircle
 10
85.177653
 20
225.897627
 40
0.65697
  0
CIRCLE
  5
112
100
AcDbEntity
  8
M0
  6
CONTINUOUS
370
13
100
AcDbCircle
 10
85.177653
 20
223.675299
 40
0.65697
  0
CIRCLE
  5
113
100
AcDbEntity
  8
M0
  6
CONTINUOUS
370
13
100
AcDbCircle
 10
92.564549
 20
225.897627
 40
0.65697
  0
CIRCLE
  5
114
100
AcDbEntity
  8
M0
  6
CONTINUOUS
370
13
100
AcDbCircle
 10
92.564549
 20
223.675299
 40
0.65697
  0
CIRCLE
  5
115
100
AcDbEntity
  8
M0
  6
CONTINUOUS
370
13
100
AcDbCircle
 10
96.257997
 20
225.897627
 40
0.65697
  0
CIRCLE
  5
116
100
AcDbEntity
  8
M0
  6
CONTINUOUS
370
13
100
AcDbCircle
 10
96.257997
 20
223.675299
 40
0.65697
  0
CIRCLE
  5
117
100
AcDbEntity
  8
M0
  6
CONTINUOUS
370
13
100
AcDbCircle
 10
99.951445
 20
225.897627
 40
0.65697
  0
CIRCLE
  5
118
100
AcDbEntity
  8
M0
  6
CONTINUOUS
370
13
100
AcDbCircle
 10
99.951445
 20
223.675299
 40
0.65697
  0
CIRCLE
  5
119
100
AcDbEntity
  8
M0
  6
CONTINUOUS
370
13
100
AcDbCircle
 10
103.644893
 20
225.897627
 40
0.65697
  0
CIRCLE
  5
11A
100
AcDbEntity
  8
M0
  6
CONTINUOUS
370
13
100
AcDbCircle
 10
103.644893
 20
223.675299
 40
0.65697
  0
ARC
  5
11B
100
AcDbEntity
  8
M0
  6
DIVIDE
370
13
100
AcDbCircle
 10
92.562224
 20
235.013455
 40
0.919757
100
AcDbArc
 50
0.0
 51
180.0
  0
ARC
  5
11C
100
AcDbEntity
  8
M0
  6
DIVIDE
370
13
100
AcDbCircle
 10
92.562224
 20
230.414669
 40
0.919757
100
AcDbArc
 50
180.0
 51
360.0
  0
ARC
  5
11D
100
AcDbEntity
  8
M0
  6
DIVIDE
370
13
100
AcDbCircle
 10
96.255672
 20
235.013455
 40
0.919757
100
AcDbArc
 50
0.0
 51
180.0
  0
ARC
  5
11E
100
AcDbEntity
  8
M0
  6
DIVIDE
370
13
100
AcDbCircle
 10
96.255672
 20
230.414669
 40
0.919757
100
AcDbArc
 50
180.0
 51
360.0
  0
LINE
  5
11F
100
AcDbEntity
  8
M0
  6
CONTINUOUS
370
13
 62
     7
100
AcDbLine
 10
113.50907
 20
222.109941
 11
113.50907
 21
227.462985
  0
LINE
  5
120
100
AcDbEntity
  8
M0
  6
DIVIDE
370
13
100
AcDbLine
 10
99.029363
 20
235.013455
 11
99.029363
 21
230.414669
  0
LINE
  5
121
100
AcDbEntity
  8
M0
  6
DIVIDE
370
13
100
AcDbLine
 10
102.722811
 20
235.013455
 11
102.722811
 21
230.414669
  0
LINE
  5
122
100
AcDbEntity
  8
M0
  6
CONTINUOUS
370
13
100
AcDbLine
 10
107.338341
 20
226.554601
 11
107.336016
 21
230.414669
  0
LINE
  5
123
100
AcDbEntity
  8
M0
  6
CONTINUOUS
370
13
100
AcDbLine
 10
107.999781
 20
233.097244
 11
106.672251
 21
232.330794
  0
LINE
  5
124
100
AcDbEntity
  8
M0
  6
CONTINUOUS
370
13
100
AcDbLine
 10
107.999781
 20
231.564344
 11
106.672251
 21
230.797894
  0
LINE
  5
125
100
AcDbEntity
  8
M0
  6
CONTINUOUS
370
13
100
AcDbLine
 10
108.609811
 20
237.312806
 11
107.336016
 21
237.312806
  0
LINE
  5
126
100
AcDbEntity
  8
M0
  6
DIVIDE
370
13
100
AcDbLine
 10
106.416259
 20
235.013455
 11
106.416259
 21
230.414669
  0
LINE
  5
127
100
AcDbEntity
  8
M0
  6
CONTINUOUS
370
13
100
AcDbLine
 10
107.999781
 20
234.630144
 11
106.672251
 21
233.863694
  0
LINE
  5
128
100
AcDbEntity
  8
M0
  6
CONTINUOUS
370
13
100
AcDbLine
 10
107.336016
 20
235.013369
 11
107.999781
 21
234.630144
  0
LINE
  5
129
100
AcDbEntity
  8
M0
  6
CONTINUOUS
370
13
100
AcDbLine
 10
107.999781
 20
231.564344
 11
106.672251
 21
232.330794
  0
LINE
  5
12A
100
AcDbEntity
  8
M0
  6
CONTINUOUS
370
13
100
AcDbLine
 10
107.999781
 20
233.097244
 11
106.672251
 21
233.863694
  0
LINE
  5
12B
100
AcDbEntity
  8
M0
  6
CONTINUOUS
370
13
100
AcDbLine
 10
107.336016
 20
235.013369
 11
107.336016
 21
237.312806
  0
LINE
  5
12C
100
AcDbEntity
  8
M0
  6
CONTINUOUS
370
13
100
AcDbLine
 10
107.336016
 20
230.414669
 11
106.672251
 21
230.797894
  0
LINE
  5
12D
100
AcDbEntity
  8
M0
  6
DIVIDE
370
13
100
AcDbLine
 10
108.255774
 20
230.414669
 11
108.255774
 21
235.013455
  0
LINE
  5
12E
100
AcDbEntity
  8
M0
  6
CONTINUOUS
370
13
100
AcDbLine
 10
108.609811
 20
224.946774
 11
108.609811
 21
237.312806
  0
LINE
  5
12F
100
AcDbEntity
  8
M0
  6
CONTINUOUS
370
13
100
AcDbLine
 10
107.802886
 20
224.139849
 11
108.609811
 21
224.946774
  0
CIRCLE
  5
130
100
AcDbEntity
  8
M0
  6
CONTINUOUS
370
13
100
AcDbCircle
 10
107.338341
 20
225.897627
 40
0.65697
  0
CIRCLE
  5
131
100
AcDbEntity
  8
M0
  6
CONTINUOUS
370
13
100
AcDbCircle
 10
111.031789
 20
223.675299
 40
0.65697
  0
CIRCLE
  5
132
100
AcDbEntity
  8
M0
  6
CONTINUOUS
370
13
100
AcDbCircle
 10
111.031789
 20
225.897627
 40
0.65697
  0
CIRCLE
  5
133
100
AcDbEntity
  8
M0
  6
CONTINUOUS
370
13
100
AcDbCircle
 10
107.338341
 20
223.675299
 40
0.65697
  0
CIRCLE
  5
134
100
AcDbEntity
  8
M0
  6
CONTINUOUS
370
13
100
AcDbCircle
 10
88.871101
 20
223.675299
 40
0.65697
  0
CIRCLE
  5
135
100
AcDbEntity
  8
M0
  6
CONTINUOUS
370
13
100
AcDbCircle
 10
88.871101
 20
225.897627
 40
0.65697
  0
CIRCLE
  5
136
100
AcDbEntity
  8
M0
  6
CONTINUOUS
370
13
100
AcDbCircle
 10
81.484205
 20
223.675299
 40
0.65697
  0
CIRCLE
  5
137
100
AcDbEntity
  8
M0
  6
CONTINUOUS
370
13
100
AcDbCircle
 10
81.484205
 20
225.897627
 40
0.65697
  0
ARC
  5
138
100
AcDbEntity
  8
M0
  6
DIVIDE
370
13
100
AcDbCircle
 10
99.94912
 20
235.013455
 40
0.919757
100
AcDbArc
 50
0.0
 51
180.0
  0
ARC
  5
139
100
AcDbEntity
  8
M0
  6
DIVIDE
370
13
100
AcDbCircle
 10
99.94912
 20
230.414669
 40
0.919757
100
AcDbArc
 50
180.0
 51
360.0
  0
ARC
  5
13A
100
AcDbEntity
  8
M0
  6
DIVIDE
370
13
100
AcDbCircle
 10
103.642568
 20
235.013455
 40
0.919757
100
AcDbArc
 50
0.0
 51
180.0
  0
ARC
  5
13B
100
AcDbEntity
  8
M0
  6
DIVIDE
370
13
100
AcDbCircle
 10
103.642568
 20
230.414669
 40
0.919757
100
AcDbArc
 50
180.0
 51
360.0
  0
ARC
  5
13C
100
AcDbEntity
  8
M0
  6
DIVIDE
370
13
100
AcDbCircle
 10
107.336016
 20
235.013455
 40
0.919757
100
AcDbArc
 50
0.0
 51
180.0
  0
ARC
  5
13D
100
AcDbEntity
  8
M0
  6
DIVIDE
370
13
100
AcDbCircle
 10
107.336016
 20
230.414669
 40
0.919757
100
AcDbArc
 50
180.0
 51
360.0
  0
TEXT
  5
13E
100
AcDbEntity
  8
M0
100
AcDbText
 10
109.346099
 20
238.691585
 40
3.666125
  1
タンクセンサ１（最頂部）
 50
90.000003
 41
0.694444
  7
STANDARD
100
AcDbText
  0
TEXT
  5
13F
100
AcDbEntity
  8
M0
100
AcDbText
 10
105.652648
 20
238.691585
 40
3.666125
  1
タンクセンサ２（１２０Ｌ部）
 50
90.000003
 41
0.694444
  7
STANDARD
100
AcDbText
  0
TEXT
  5
140
100
AcDbEntity
  8
M0
100
AcDbText
 10
101.959205
 20
238.691585
 40
3.666125
  1
タンクセンサ３（２６０Ｌ部）
 50
90.000003
 41
0.694444
  7
STANDARD
100
AcDbText
  0
TEXT
  5
141
100
AcDbEntity
  8
M0
100
AcDbText
 10
98.265754
 20
238.691585
 40
3.666125
  1
タンクセンサ４（４００Ｌ部）
 50
90.000003
 41
0.694444
  7
STANDARD
100
AcDbText
  0
TEXT
  5
142
100
AcDbEntity
  8
M0
100
AcDbText
 10
94.395286
 20
238.691585
 40
3.666125
  1
タンクセンサ５（最下部）
 50
90.000003
 41
0.694444
  7
STANDARD
100
AcDbText
  0
TEXT
  5
143
100
AcDbEntity
  8
M0
100
AcDbText
 10
90.343478
 20
219.421451
 40
2.688492
  1
ＣＮ２０４
 41
0.643939
  7
STANDARD
100
AcDbText
  0
LINE
  5
144
100
AcDbEntity
  8
M0
  6
CONTINUOUS
370
25
 62
     7
100
AcDbLine
 10
55.800686
 20
228.433572
 11
120.899618
 21
228.433572
  0
LINE
  5
145
100
AcDbEntity
  8
M0
  6
CONTINUOUS
370
25
 62
     7
100
AcDbLine
 10
51.600686
 20
106.633572
 11
51.600686
 21
224.233572
  0
LINE
  5
146
100
AcDbEntity
  8
M0
  6
CONTINUOUS
370
25
 62
     7
100
AcDbLine
 10
125.099618
 20
106.633572
 11
125.099618
 21
224.233572
  0
LINE
  5
147
100
AcDbEntity
  8
M0
  6
CONTINUOUS
370
25
 62
     7
100
AcDbLine
 10
117.750152
 20
223.708572
 11
117.750152
 21
222.658572
  0
LINE
  5
148
100
AcDbEntity
  8
M0
  6
CONTINUOUS
370
25
 62
     7
100
AcDbLine
 10
121.950152
 20
222.658572
 11
121.950152
 21
223.708572
  0
LINE
  5
149
100
AcDbEntity
  8
M0
  6
CONTINUOUS
370
25
 62
     7
100
AcDbLine
 10
120.899618
 20
102.433572
 11
55.800686
 21
102.433572
  0
CIRCLE
  5
14A
100
AcDbEntity
  8
M0
  6
CONTINUOUS
370
25
 62
     7
100
AcDbCircle
 10
56.850686
 20
107.683572
 40
2.1
  0
CIRCLE
  5
14B
100
AcDbEntity
  8
M0
  6
CONTINUOUS
370
25
 62
     7
100
AcDbCircle
 10
56.850686
 20
223.183572
 40
2.1
  0
CIRCLE
  5
14C
100
AcDbEntity
  8
M0
  6
CONTINUOUS
370
25
 62
     7
100
AcDbCircle
 10
119.849618
 20
107.683572
 40
2.1
  0
ARC
  5
14D
100
AcDbEntity
  8
M0
  6
CONTINUOUS
370
25
 62
     7
100
AcDbCircle
 10
120.899618
 20
106.633572
 40
4.2
100
AcDbArc
 50
270.0
 51
360.0
  0
ARC
  5
14E
100
AcDbEntity
  8
M0
  6
CONTINUOUS
370
25
 62
     7
100
AcDbCircle
 10
55.800686
 20
224.233572
 40
4.2
100
AcDbArc
 50
90.0
 51
180.0
  0
ARC
  5
14F
100
AcDbEntity
  8
M0
  6
CONTINUOUS
370
25
 62
     7
100
AcDbCircle
 10
55.800686
 20
106.633572
 40
4.2
100
AcDbArc
 50
180.0
 51
270.0
  0
ARC
  5
150
100
AcDbEntity
  8
M0
  6
CONTINUOUS
370
25
 62
     7
100
AcDbCircle
 10
120.899618
 20
224.233572
 40
4.2
100
AcDbArc
 50
6.203596E-012
 51
90.0
  0
ARC
  5
151
100
AcDbEntity
  8
M0
  6
CONTINUOUS
370
25
 62
     7
100
AcDbCircle
 10
119.850152
 20
223.708572
 40
2.1
100
AcDbArc
 50
0.0
 51
180.0
  0
ARC
  5
152
100
AcDbEntity
  8
M0
  6
CONTINUOUS
370
25
 62
     7
100
AcDbCircle
 10
119.850152
 20
222.658572
 40
2.1
100
AcDbArc
 50
180.0
 51
360.0
  0
LINE
  5
153
100
AcDbEntity
  8
M0
  6
CONTINUOUS
370
13
100
AcDbLine
 10
205.969685
 20
44.664035
 11
208.622834
 21
44.664035
  0
LINE
  5
154
100
AcDbEntity
  8
M0
  6
DASHDOT
370
13
100
AcDbLine
 10
196.809316
 20
28.297741
 11
196.809316
 21
49.967454
  0
LINE
  5
155
100
AcDbEntity
  8
M0
  6
CONTINUOUS
370
13
100
AcDbLine
 10
211.718171
 20
37.64792
 11
211.718171
 21
47.731417
  0
LINE
  5
156
100
AcDbEntity
  8
M0
  6
CONTINUOUS
370
13
100
AcDbLine
 10
211.718171
 20
47.731417
 11
202.87435
 21
47.731417
  0
LINE
  5
157
100
AcDbEntity
  8
M0
  6
CONTINUOUS
370
13
100
AcDbLine
 10
202.87435
 20
47.731417
 11
202.87435
 21
37.64792
  0
LINE
  5
158
100
AcDbEntity
  8
M0
  6
DASHDOT
370
13
100
AcDbLine
 10
225.526772
 20
28.297741
 11
196.809316
 21
28.297741
  0
LINE
  5
159
100
AcDbEntity
  8
M0
  6
DASHED
370
13
100
AcDbLine
 10
163.494612
 20
44.664035
 11
204.200924
 21
44.664035
  0
LINE
  5
15A
100
AcDbEntity
  8
M0
  6
CONTINUOUS
370
13
100
AcDbLine
 10
159.072698
 20
44.662598
 11
161.725847
 21
44.662598
  0
LINE
  5
15B
100
AcDbEntity
  8
M0
  6
CONTINUOUS
370
13
100
AcDbLine
 10
161.725845
 20
53.504983
 11
159.072699
 21
53.504983
  0
LINE
  5
15C
100
AcDbEntity
  8
M0
  6
CONTINUOUS
370
13
100
AcDbLine
 10
164.821184
 20
37.650794
 11
164.821184
 21
56.094876
  0
LINE
  5
15D
100
AcDbEntity
  8
M0
  6
CONTINUOUS
370
13
100
AcDbLine
 10
155.977363
 20
56.094876
 11
155.977363
 21
37.650794
  0
LINE
  5
15E
100
AcDbEntity
  8
M0
  6
CONTINUOUS
370
13
100
AcDbLine
 10
164.821184
 20
37.650794
 11
155.977363
 21
37.650794
  0
LINE
  5
15F
100
AcDbEntity
  8
M0
  6
CONTINUOUS
370
13
100
AcDbLine
 10
159.072698
 20
49.084509
 11
161.725847
 21
49.084509
  0
LINE
  5
160
100
AcDbEntity
  8
M0
  6
CONTINUOUS
370
13
100
AcDbLine
 10
155.977363
 20
56.094876
 11
164.821184
 21
56.094876
  0
LINE
  5
161
100
AcDbEntity
  8
M0
  6
CONTINUOUS
370
13
100
AcDbLine
 10
255.525063
 20
196.182868
 11
353.389026
 21
196.182868
  0
LINE
  5
162
100
AcDbEntity
  8
M0
  6
CONTINUOUS
370
13
100
AcDbLine
 10
255.525063
 20
196.182868
 11
255.525063
 21
96.229881
  0
LINE
  5
163
100
AcDbEntity
  8
M0
  6
CONTINUOUS
370
13
100
AcDbLine
 10
255.525063
 20
96.229881
 11
353.389026
 21
96.229881
  0
LINE
  5
164
100
AcDbEntity
  8
M0
  6
CONTINUOUS
370
13
100
AcDbLine
 10
121.974323
 20
53.987012
 11
157.446846
 21
53.987012
  0
LINE
  5
165
100
AcDbEntity
  8
M0
  6
CONTINUOUS
370
13
100
AcDbLine
 10
126.044949
 20
44.661161
 11
157.303935
 21
44.661161
  0
LINE
  5
166
100
AcDbEntity
  8
M0
  6
CONTINUOUS
370
13
100
AcDbLine
 10
159.072698
 20
40.240688
 11
161.725847
 21
40.240688
  0
LINE
  5
167
100
AcDbEntity
  8
M0
  6
CONTINUOUS
370
13
100
AcDbLine
 10
205.969685
 20
40.239251
 11
208.622834
 21
40.239251
  0
LINE
  5
168
100
AcDbEntity
  8
M0
  6
CONTINUOUS
370
13
100
AcDbLine
 10
211.718171
 20
37.64792
 11
202.87435
 21
37.64792
  0
LINE
  5
169
100
AcDbEntity
  8
M0
  6
DASHED
370
13
100
AcDbLine
 10
163.494613
 20
40.240688
 11
204.200925
 21
40.240688
  0
LINE
  5
16A
100
AcDbEntity
  8
M0
  6
CONTINUOUS
370
13
100
AcDbLine
 10
121.974323
 20
40.239251
 11
157.303935
 21
40.239251
  0
LINE
  5
16B
100
AcDbEntity
  8
M0
  6
CONTINUOUS
370
13
100
AcDbLine
 10
211.718171
 20
121.211336
 11
202.87435
 21
121.211336
  0
LINE
  5
16C
100
AcDbEntity
  8
M0
  6
CONTINUOUS
370
13
100
AcDbLine
 10
205.969685
 20
132.645051
 11
208.622834
 21
132.645051
  0
LINE
  5
16D
100
AcDbEntity
  8
M0
  6
CONTINUOUS
370
13
100
AcDbLine
 10
202.87435
 20
139.655419
 11
202.87435
 21
121.211336
  0
LINE
  5
16E
100
AcDbEntity
  8
M0
  6
CONTINUOUS
370
13
100
AcDbLine
 10
208.622833
 20
137.065525
 11
205.969687
 21
137.065525
  0
LINE
  5
16F
100
AcDbEntity
  8
M0
  6
CONTINUOUS
370
13
100
AcDbLine
 10
211.718171
 20
121.211336
 11
211.718171
 21
139.655419
  0
LINE
  5
170
100
AcDbEntity
  8
M0
  6
CONTINUOUS
370
13
100
AcDbLine
 10
202.87435
 20
139.655419
 11
211.718171
 21
139.655419
  0
LINE
  5
171
100
AcDbEntity
  8
M0
  6
CONTINUOUS
370
13
100
AcDbLine
 10
205.969685
 20
123.80123
 11
208.622834
 21
123.80123
  0
LINE
  5
172
100
AcDbEntity
  8
M0
  6
CONTINUOUS
370
13
100
AcDbLine
 10
205.969685
 20
128.223141
 11
208.622834
 21
128.223141
  0
LINE
  5
173
100
AcDbEntity
  8
M0
  6
DASHED
370
13
100
AcDbLine
 10
163.494611
 20
53.506419
 11
183.294926
 21
53.506419
  0
LINE
  5
174
100
AcDbEntity
  8
M0
  6
DASHED
370
13
100
AcDbLine
 10
163.494612
 20
49.083072
 11
187.554694
 21
49.083072
  0
LINE
  5
175
100
AcDbEntity
  8
M0
  6
DASHED
370
13
100
AcDbLine
 10
183.131347
 20
128.223141
 11
183.131347
 21
53.506419
  0
CIRCLE
  5
176
100
AcDbEntity
  8
M0
  6
CONTINUOUS
370
13
100
AcDbCircle
 10
205.085304
 20
44.662598
 40
0.884382
  0
CIRCLE
  5
177
100
AcDbEntity
  8
M0
  6
CONTINUOUS
370
13
100
AcDbCircle
 10
209.507216
 20
44.664035
 40
0.884382
  0
CIRCLE
  5
178
100
AcDbEntity
  8
M0
  6
CONTINUOUS
370
13
100
AcDbCircle
 10
162.610229
 20
49.084509
 40
0.884382
  0
CIRCLE
  5
179
100
AcDbEntity
  8
M0
  6
CONTINUOUS
370
13
100
AcDbCircle
 10
162.610229
 20
53.506419
 40
0.884382
  0
CIRCLE
  5
17A
100
AcDbEntity
  8
M0
  6
CONTINUOUS
370
13
100
AcDbCircle
 10
158.188317
 20
44.661161
 40
0.884382
  0
CIRCLE
  5
17B
100
AcDbEntity
  8
M0
  6
CONTINUOUS
370
13
100
AcDbCircle
 10
158.188317
 20
53.504983
 40
0.884382
  0
CIRCLE
  5
17C
100
AcDbEntity
  8
M0
  6
CONTINUOUS
370
13
100
AcDbCircle
 10
162.610229
 20
44.662598
 40
0.884382
  0
CIRCLE
  5
17D
100
AcDbEntity
  8
M0
  6
CONTINUOUS
370
13
100
AcDbCircle
 10
158.188317
 20
49.083072
 40
0.884382
  0
CIRCLE
  5
17E
100
AcDbEntity
  8
M0
  6
CONTINUOUS
370
13
100
AcDbCircle
 10
162.610229
 20
40.240688
 40
0.884382
  0
CIRCLE
  5
17F
100
AcDbEntity
  8
M0
  6
CONTINUOUS
370
13
100
AcDbCircle
 10
158.188317
 20
40.239251
 40
0.884382
  0
CIRCLE
  5
180
100
AcDbEntity
  8
M0
  6
CONTINUOUS
370
13
100
AcDbCircle
 10
205.085304
 20
40.237814
 40
0.884382
  0
CIRCLE
  5
181
100
AcDbEntity
  8
M0
  6
CONTINUOUS
370
13
100
AcDbCircle
 10
209.507216
 20
40.239251
 40
0.884382
  0
CIRCLE
  5
182
100
AcDbEntity
  8
M0
  6
CONTINUOUS
370
13
100
AcDbCircle
 10
209.507216
 20
123.80123
 40
0.884382
  0
CIRCLE
  5
183
100
AcDbEntity
  8
M0
  6
CONTINUOUS
370
13
100
AcDbCircle
 10
205.085304
 20
123.799793
 40
0.884382
  0
CIRCLE
  5
184
100
AcDbEntity
  8
M0
  6
CONTINUOUS
370
13
100
AcDbCircle
 10
205.085304
 20
132.643614
 40
0.884382
  0
CIRCLE
  5
185
100
AcDbEntity
  8
M0
  6
CONTINUOUS
370
13
100
AcDbCircle
 10
205.085304
 20
137.065525
 40
0.884382
  0
CIRCLE
  5
186
100
AcDbEntity
  8
M0
  6
CONTINUOUS
370
13
100
AcDbCircle
 10
209.507216
 20
128.223141
 40
0.884382
  0
CIRCLE
  5
187
100
AcDbEntity
  8
M0
  6
CONTINUOUS
370
13
100
AcDbCircle
 10
209.507216
 20
137.066962
 40
0.884382
  0
CIRCLE
  5
188
100
AcDbEntity
  8
M0
  6
CONTINUOUS
370
13
100
AcDbCircle
 10
205.085304
 20
128.221704
 40
0.884382
  0
CIRCLE
  5
189
100
AcDbEntity
  8
M0
  6
CONTINUOUS
370
13
100
AcDbCircle
 10
209.507216
 20
132.645051
 40
0.884382
  0
TEXT
  5
18A
100
AcDbEntity
  8
M0
100
AcDbText
 10
200.194004
 20
22.302318
 40
3.67
  1
ヒートポンプユニット
 41
0.694823
  7
STANDARD
100
AcDbText
  0
TEXT
  5
18B
100
AcDbEntity
  8
M0
100
AcDbText
 10
153.114126
 20
49.968891
 40
2.94794
  1
黒
 41
0.833333
  7
STANDARD
100
AcDbText
  0
TEXT
  5
18C
100
AcDbEntity
  8
M0
100
AcDbText
 10
153.114126
 20
54.390797
 40
2.94794
  1
白
 41
0.833333
  7
STANDARD
100
AcDbText
  0
LINE
  5
18D
100
AcDbEntity
  8
M0
  6
CONTINUOUS
370
13
100
AcDbLine
 10
256.291345
 20
189.919272
 11
290.420208
 21
189.919272
  0
TEXT
  5
18E
100
AcDbEntity
  8
M0
100
AcDbText
 10
256.757377
 20
190.225704
 40
3.06432
  1
ディップスイッチの設定
 41
0.833333
  7
STANDARD
100
AcDbText
  0
TEXT
  5
18F
100
AcDbEntity
  8
M0
100
AcDbText
 10
202.658203
 20
32.257946
 40
3.67
  1
ヒートポンプ側端子台
 41
0.694823
  7
STANDARD
100
AcDbText
  0
TEXT
  5
190
100
AcDbEntity
  8
M0
100
AcDbText
 10
155.594952
 20
32.030605
 40
3.67
  1
ヒートポンプ用
 41
0.694823
  7
STANDARD
100
AcDbText
  0
TEXT
  5
191
100
AcDbEntity
  8
M0
100
AcDbText
 10
155.59495
 20
26.892605
 40
3.67
  1
接続端子台
 41
0.694823
  7
STANDARD
100
AcDbText
  0
TEXT
  5
192
100
AcDbEntity
  8
M0
100
AcDbText
 10
153.114126
 20
44.662578
 40
2.94794
  1
白
 41
0.833333
  7
STANDARD
100
AcDbText
  0
TEXT
  5
193
100
AcDbEntity
  8
M0
100
AcDbText
 10
153.114126
 20
40.240681
 40
2.94794
  1
黒
 41
0.833333
  7
STANDARD
100
AcDbText
  0
TEXT
  5
194
100
AcDbEntity
  8
M0
100
AcDbText
 10
212.377415
 20
44.664013
 40
2.94794
  1
白
 41
0.833333
  7
STANDARD
100
AcDbText
  0
TEXT
  5
195
100
AcDbEntity
  8
M0
100
AcDbText
 10
212.377415
 20
40.2421
 40
2.94794
  1
黒
 41
0.833333
  7
STANDARD
100
AcDbText
  0
TEXT
  5
196
100
AcDbEntity
  8
M0
100
AcDbText
 10
200.011118
 20
128.22312
 40
2.94794
  1
白
 41
0.833333
  7
STANDARD
100
AcDbText
  0
TEXT
  5
197
100
AcDbEntity
  8
M0
100
AcDbText
 10
200.011118
 20
123.801218
 40
2.94794
  1
黒
 41
0.833333
  7
STANDARD
100
AcDbText
  0
TEXT
  5
198
100
AcDbEntity
  8
M0
100
AcDbText
 10
202.491947
 20
116.692144
 40
3.67
  1
ヒートポンプ用
 41
0.694823
  7
STANDARD
100
AcDbText
  0
TEXT
  5
199
100
AcDbEntity
  8
M0
100
AcDbText
 10
202.491945
 20
111.554144
 40
3.67
  1
接続端子台
 41
0.694823
  7
STANDARD
100
AcDbText
  0
TEXT
  5
19A
100
AcDbEntity
  8
M0
100
AcDbText
 10
200.011118
 20
132.645042
 40
2.94794
  1
黒
 41
0.833333
  7
STANDARD
100
AcDbText
  0
TEXT
  5
19B
100
AcDbEntity
  8
M0
100
AcDbText
 10
200.011118
 20
137.066944
 40
2.94794
  1
白
 41
0.833333
  7
STANDARD
100
AcDbText
  0
LINE
  5
19C
100
AcDbEntity
  8
M0
  6
DASHED
370
13
100
AcDbLine
 10
187.554694
 20
123.799793
 11
187.554694
 21
49.083072
  0
LINE
  5
19D
100
AcDbEntity
  8
M0
  6
DASHED
370
13
100
AcDbLine
 10
183.131347
 20
128.223141
 11
204.200924
 21
128.223141
  0
LINE
  5
19E
100
AcDbEntity
  8
M0
  6
DASHED
370
13
100
AcDbLine
 10
187.554694
 20
123.799793
 11
204.200922
 21
123.799793
  0
LINE
  5
19F
100
AcDbEntity
  8
M0
  6
DASHDOT
370
13
100
AcDbLine
 10
225.526772
 20
49.967454
 11
196.809316
 21
49.967454
  0
LINE
  5
1A0
100
AcDbEntity
  8
M0
  6
CONTINUOUS
370
13
100
AcDbLine
 10
126.044949
 20
49.565101
 11
157.446846
 21
49.565101
  0
LINE
  5
1A1
100
AcDbEntity
  8
M0
  6
CONTINUOUS
370
13
100
AcDbLine
 10
122.464323
 20
53.022953
 11
157.446846
 21
53.022953
  0
LINE
  5
1A2
100
AcDbEntity
  8
M0
  6
CONTINUOUS
370
13
100
AcDbLine
 10
126.534949
 20
48.603916
 11
157.446846
 21
48.603916
  0
LINE
  5
1A3
100
AcDbEntity
  8
M0
  6
DASHDOT
370
13
100
AcDbLine
 10
225.526772
 20
105.784946
 11
196.809316
 21
105.784946
  0
LINE
  5
1A4
100
AcDbEntity
  8
M0
  6
DASHDOT
370
13
100
AcDbLine
 10
196.809316
 20
105.784946
 11
196.809316
 21
179.839005
  0
LINE
  5
1A5
100
AcDbEntity
  8
M0
  6
DASHDOT
370
13
100
AcDbLine
 10
225.526772
 20
179.839005
 11
196.809316
 21
179.839005
  0
LINE
  5
1A6
100
AcDbEntity
  8
M0
  6
CONTINUOUS
370
13
100
AcDbLine
 10
155.977363
 20
104.211979
 11
155.977363
 21
85.767896
  0
LINE
  5
1A7
100
AcDbEntity
  8
M0
  6
CONTINUOUS
370
13
100
AcDbLine
 10
164.821184
 20
85.767896
 11
155.977363
 21
85.767896
  0
LINE
  5
1A8
100
AcDbEntity
  8
M0
  6
CONTINUOUS
370
13
100
AcDbLine
 10
161.725845
 20
101.622085
 11
159.072699
 21
101.622085
  0
LINE
  5
1A9
100
AcDbEntity
  8
M0
  6
CONTINUOUS
370
13
100
AcDbLine
 10
164.821184
 20
85.767896
 11
164.821184
 21
104.211979
  0
LINE
  5
1AA
100
AcDbEntity
  8
M0
  6
CONTINUOUS
370
13
100
AcDbLine
 10
159.072698
 20
92.779701
 11
161.725847
 21
92.779701
  0
LINE
  5
1AB
100
AcDbEntity
  8
M0
  6
CONTINUOUS
370
13
100
AcDbLine
 10
155.977363
 20
104.211979
 11
164.821184
 21
104.211979
  0
LINE
  5
1AC
100
AcDbEntity
  8
M0
  6
CONTINUOUS
370
13
100
AcDbLine
 10
159.072698
 20
88.35779
 11
161.725847
 21
88.35779
  0
LINE
  5
1AD
100
AcDbEntity
  8
M0
  6
CONTINUOUS
370
13
100
AcDbLine
 10
159.072698
 20
97.201611
 11
161.725847
 21
97.201611
  0
LINE
  5
1AE
100
AcDbEntity
  8
M0
  6
DASHED
370
13
100
AcDbLine
 10
187.983008
 20
80.96101
 11
204.200922
 21
80.96101
  0
LINE
  5
1AF
100
AcDbEntity
  8
M0
  6
DASHED
370
13
100
AcDbLine
 10
188.041333
 20
85.382921
 11
204.200922
 21
85.382921
  0
LINE
  5
1B0
100
AcDbEntity
  8
M0
  6
DASHED
370
13
100
AcDbLine
 10
183.617986
 20
85.382921
 11
187.061333
 21
85.382921
  0
LINE
  5
1B1
100
AcDbEntity
  8
M0
  6
DASHED
370
13
100
AcDbLine
 10
183.559661
 20
80.96101
 11
187.003008
 21
80.96101
  0
LINE
  5
1B2
100
AcDbEntity
  8
M0
  6
DASHED
370
13
100
AcDbLine
 10
176.077359
 20
85.382932
 11
182.637986
 21
85.382932
  0
LINE
  5
1B3
100
AcDbEntity
  8
M0
  6
DASHED
370
13
100
AcDbLine
 10
172.215114
 20
80.961022
 11
182.579661
 21
80.961022
  0
LINE
  5
1B4
100
AcDbEntity
  8
M0
  6
DASHED
370
13
100
AcDbLine
 10
176.077359
 20
92.741393
 11
176.077359
 21
85.382932
  0
LINE
  5
1B5
100
AcDbEntity
  8
M0
  6
DASHED
370
13
100
AcDbLine
 10
172.273439
 20
88.356353
 11
172.273439
 21
80.961022
  0
LINE
  5
1B6
100
AcDbEntity
  8
M0
  6
DASHED
370
13
100
AcDbLine
 10
163.494611
 20
88.356353
 11
172.273439
 21
88.356353
  0
LINE
  5
1B7
100
AcDbEntity
  8
M0
  6
DASHED
370
13
100
AcDbLine
 10
163.494611
 20
92.779701
 11
176.077359
 21
92.779701
  0
LINE
  5
1B8
100
AcDbEntity
  8
M0
  6
CONTINUOUS
370
13
100
AcDbLine
 10
133.42796
 20
88.356353
 11
157.303935
 21
88.356353
  0
LINE
  5
1B9
100
AcDbEntity
  8
M0
  6
CONTINUOUS
370
13
100
AcDbLine
 10
137.84987
 20
92.778264
 11
157.303935
 21
92.778264
  0
LINE
  5
1BA
100
AcDbEntity
  8
M0
  6
CONTINUOUS
370
13
100
AcDbLine
 10
147.444123
 20
97.200174
 11
157.303935
 21
97.200174
  0
LINE
  5
1BB
100
AcDbEntity
  8
M0
  6
CONTINUOUS
370
13
100
AcDbLine
 10
141.742144
 20
101.622085
 11
157.303935
 21
101.622085
  0
LINE
  5
1BC
100
AcDbEntity
  8
M0
  6
CONTINUOUS
370
13
100
AcDbLine
 10
141.742144
 20
101.622085
 11
141.742144
 21
97.201611
  0
LINE
  5
1BD
100
AcDbEntity
  8
M0
  6
CONTINUOUS
370
13
100
AcDbLine
 10
147.444123
 20
92.363648
 11
147.444123
 21
89.676412
  0
LINE
  5
1BE
100
AcDbEntity
  8
M0
  6
CONTINUOUS
370
13
100
AcDbLine
 10
147.427227
 20
95.154643
 11
147.427227
 21
93.343357
  0
LINE
  5
1BF
100
AcDbEntity
  8
M0
  6
CONTINUOUS
370
13
100
AcDbLine
 10
147.427227
 20
97.200174
 11
147.427227
 21
96.134643
  0
LINE
  5
1C0
100
AcDbEntity
  8
M0
  6
CONTINUOUS
370
13
100
AcDbLine
 10
137.84987
 20
111.536335
 11
137.84987
 21
92.778264
  0
LINE
  5
1C1
100
AcDbEntity
  8
M0
  6
CONTINUOUS
370
13
100
AcDbLine
 10
137.84987
 20
111.536335
 11
161.250549
 21
111.536335
  0
LINE
  5
1C2
100
AcDbEntity
  8
M0
  6
CONTINUOUS
370
13
100
AcDbLine
 10
155.977363
 20
129.535647
 11
155.977363
 21
115.958246
  0
LINE
  5
1C3
100
AcDbEntity
  8
M0
  6
CONTINUOUS
370
13
100
AcDbLine
 10
161.250549
 20
129.535647
 11
161.250549
 21
111.536335
  0
LINE
  5
1C4
100
AcDbEntity
  8
M0
  6
CONTINUOUS
370
13
100
AcDbLine
 10
211.718171
 20
155.503517
 11
211.718171
 21
173.947599
  0
LINE
  5
1C5
100
AcDbEntity
  8
M0
  6
CONTINUOUS
370
13
100
AcDbLine
 10
205.969685
 20
162.515321
 11
208.622834
 21
162.515321
  0
LINE
  5
1C6
100
AcDbEntity
  8
M0
  6
CONTINUOUS
370
13
100
AcDbLine
 10
211.718171
 20
155.503517
 11
202.87435
 21
155.503517
  0
LINE
  5
1C7
100
AcDbEntity
  8
M0
  6
CONTINUOUS
370
13
100
AcDbLine
 10
208.622833
 20
171.357705
 11
205.969687
 21
171.357705
  0
LINE
  5
1C8
100
AcDbEntity
  8
M0
  6
CONTINUOUS
370
13
100
AcDbLine
 10
202.87435
 20
173.947599
 11
202.87435
 21
155.503517
  0
LINE
  5
1C9
100
AcDbEntity
  8
M0
  6
CONTINUOUS
370
13
100
AcDbLine
 10
205.969685
 20
158.093411
 11
208.622834
 21
158.093411
  0
LINE
  5
1CA
100
AcDbEntity
  8
M0
  6
CONTINUOUS
370
13
100
AcDbLine
 10
205.969685
 20
166.937232
 11
208.622834
 21
166.937232
  0
LINE
  5
1CB
100
AcDbEntity
  8
M0
  6
CONTINUOUS
370
13
100
AcDbLine
 10
202.87435
 20
173.947599
 11
211.718171
 21
173.947599
  0
CIRCLE
  5
1CC
100
AcDbEntity
  8
M0
  6
CONTINUOUS
370
13
100
AcDbCircle
 10
158.188317
 20
97.200174
 40
0.884382
  0
CIRCLE
  5
1CD
100
AcDbEntity
  8
M0
  6
CONTINUOUS
370
13
100
AcDbCircle
 10
162.610229
 20
88.35779
 40
0.884382
  0
CIRCLE
  5
1CE
100
AcDbEntity
  8
M0
  6
CONTINUOUS
370
13
100
AcDbCircle
 10
158.188317
 20
101.622085
 40
0.884382
  0
CIRCLE
  5
1CF
100
AcDbEntity
  8
M0
  6
CONTINUOUS
370
13
100
AcDbCircle
 10
162.610229
 20
92.779701
 40
0.884382
  0
CIRCLE
  5
1D0
100
AcDbEntity
  8
M0
  6
CONTINUOUS
370
13
100
AcDbCircle
 10
158.188317
 20
92.778264
 40
0.884382
  0
CIRCLE
  5
1D1
100
AcDbEntity
  8
M0
  6
CONTINUOUS
370
13
100
AcDbCircle
 10
158.188317
 20
88.356353
 40
0.884382
  0
CIRCLE
  5
1D2
100
AcDbEntity
  8
M0
  6
CONTINUOUS
370
13
100
AcDbCircle
 10
162.610229
 20
97.201611
 40
0.884382
  0
CIRCLE
  5
1D3
100
AcDbEntity
  8
M0
  6
CONTINUOUS
370
13
100
AcDbCircle
 10
162.610229
 20
101.623522
 40
0.884382
  0
CIRCLE
  5
1D4
100
AcDbEntity
  8
M0
  6
CONTINUOUS
370
13
100
AcDbCircle
 10
205.085304
 20
158.091974
 40
0.884382
  0
CIRCLE
  5
1D5
100
AcDbEntity
  8
M0
  6
CONTINUOUS
370
13
100
AcDbCircle
 10
209.507216
 20
166.937232
 40
0.884382
  0
CIRCLE
  5
1D6
100
AcDbEntity
  8
M0
  6
CONTINUOUS
370
13
100
AcDbCircle
 10
209.507216
 20
162.515321
 40
0.884382
  0
CIRCLE
  5
1D7
100
AcDbEntity
  8
M0
  6
CONTINUOUS
370
13
100
AcDbCircle
 10
205.085304
 20
162.513884
 40
0.884382
  0
CIRCLE
  5
1D8
100
AcDbEntity
  8
M0
  6
CONTINUOUS
370
13
100
AcDbCircle
 10
205.085304
 20
171.357705
 40
0.884382
  0
CIRCLE
  5
1D9
100
AcDbEntity
  8
M0
  6
CONTINUOUS
370
13
100
AcDbCircle
 10
209.507216
 20
171.359142
 40
0.884382
  0
CIRCLE
  5
1DA
100
AcDbEntity
  8
M0
  6
CONTINUOUS
370
13
100
AcDbCircle
 10
205.085304
 20
166.935795
 40
0.884382
  0
CIRCLE
  5
1DB
100
AcDbEntity
  8
M0
  6
CONTINUOUS
370
13
100
AcDbCircle
 10
209.507216
 20
158.093411
 40
0.884382
  0
TEXT
  5
1DC
100
AcDbEntity
  8
M0
100
AcDbText
 10
203.073635
 20
99.136503
 40
3.67
  1
貯湯ユニット
 41
0.694823
  7
STANDARD
100
AcDbText
  0
TEXT
  5
1DD
100
AcDbEntity
  8
M0
100
AcDbText
 10
153.114126
 20
94.253647
 40
2.94794
  1
白
 41
0.833333
  7
STANDARD
100
AcDbText
  0
TEXT
  5
1DE
100
AcDbEntity
  8
M0
100
AcDbText
 10
153.109671
 20
89.353847
 40
2.94794
  1
黒
 41
0.833333
  7
STANDARD
100
AcDbText
  0
TEXT
  5
1DF
100
AcDbEntity
  8
M0
100
AcDbText
 10
153.114126
 20
98.085989
 40
2.94794
  1
茶
 41
0.833333
  7
STANDARD
100
AcDbText
  0
TEXT
  5
1E0
100
AcDbEntity
  8
M0
100
AcDbText
 10
153.114126
 20
102.507894
 40
2.94794
  1
赤
 41
0.833333
  7
STANDARD
100
AcDbText
  0
TEXT
  5
1E1
100
AcDbEntity
  8
M0
100
AcDbText
 10
200.011114
 20
167.821617
 40
2.94794
  1
茶
 41
0.833333
  7
STANDARD
100
AcDbText
  0
TEXT
  5
1E2
100
AcDbEntity
  8
M0
100
AcDbText
 10
200.011114
 20
172.243523
 40
2.94794
  1
赤
 41
0.833333
  7
STANDARD
100
AcDbText
  0
TEXT
  5
1E3
100
AcDbEntity
  8
M0
100
AcDbText
 10
200.002905
 20
163.317177
 40
2.94794
  1
白
 41
0.833333
  7
STANDARD
100
AcDbText
  0
TEXT
  5
1E4
100
AcDbEntity
  8
M0
100
AcDbText
 10
199.998449
 20
158.417372
 40
2.94794
  1
黒
 41
0.833333
  7
STANDARD
100
AcDbText
  0
LINE
  5
1E5
100
AcDbEntity
  8
M0
  6
DASHED
370
13
100
AcDbLine
 10
163.494611
 20
97.200174
 11
176.389335
 21
97.200174
  0
LINE
  5
1E6
100
AcDbEntity
  8
M0
  6
DASHED
370
13
100
AcDbLine
 10
163.494611
 20
101.623522
 11
172.585416
 21
101.623522
  0
LINE
  5
1E7
100
AcDbEntity
  8
M0
  6
DASHED
370
13
100
AcDbLine
 10
172.585416
 20
162.513884
 11
172.585416
 21
101.623522
  0
LINE
  5
1E8
100
AcDbEntity
  8
M0
  6
DASHED
370
13
100
AcDbLine
 10
176.389335
 20
158.090537
 11
176.389335
 21
97.200174
  0
LINE
  5
1E9
100
AcDbEntity
  8
M0
  6
DASHED
370
13
100
AcDbLine
 10
172.585416
 20
162.513884
 11
204.200922
 21
162.513884
  0
LINE
  5
1EA
100
AcDbEntity
  8
M0
  6
DASHED
370
13
100
AcDbLine
 10
176.389335
 20
158.090537
 11
204.200921
 21
158.090537
  0
LINE
  5
1EB
100
AcDbEntity
  8
M0
  6
CONTINUOUS
370
13
100
AcDbLine
 10
133.42796
 20
115.958246
 11
133.42796
 21
88.356353
  0
LINE
  5
1EC
100
AcDbEntity
  8
M0
  6
CONTINUOUS
370
13
100
AcDbLine
 10
155.977363
 20
115.958246
 11
133.42796
 21
115.958246
  0
TEXT
  5
1ED
100
AcDbEntity
  8
M0
100
AcDbText
 10
155.625904
 20
80.742947
 40
3.67
  1
ヒータ電源
 41
0.694823
  7
STANDARD
100
AcDbText
  0
TEXT
  5
1EE
100
AcDbEntity
  8
M0
100
AcDbText
 10
155.625902
 20
75.604946
 40
3.67
  1
端子台
 41
0.694823
  7
STANDARD
100
AcDbText
  0
TEXT
  5
1EF
100
AcDbEntity
  8
M0
100
AcDbText
 10
202.491947
 20
150.984327
 40
3.67
  1
ヒータ電源
 41
0.694823
  7
STANDARD
100
AcDbText
  0
TEXT
  5
1F0
100
AcDbEntity
  8
M0
100
AcDbText
 10
202.491945
 20
145.846327
 40
3.67
  1
端子台
 41
0.694823
  7
STANDARD
100
AcDbText
  0
LINE
  5
1F1
100
AcDbEntity
  8
M0
  6
CONTINUOUS
370
13
100
AcDbLine
 10
121.974323
 20
53.987012
 11
121.974323
 21
40.239251
  0
LINE
  5
1F2
100
AcDbEntity
  8
M0
  6
CONTINUOUS
370
13
 62
     7
100
AcDbLine
 10
66.723335
 20
111.680922
 11
66.723335
 21
107.917034
  0
LINE
  5
1F3
100
AcDbEntity
  8
M0
  6
CONTINUOUS
370
13
 62
     7
100
AcDbLine
 10
76.633128
 20
111.680922
 11
76.633128
 21
107.917034
  0
LINE
  5
1F4
100
AcDbEntity
  8
M0
  6
CONTINUOUS
370
13
 62
     7
100
AcDbLine
 10
76.633128
 20
107.917034
 11
66.723335
 21
107.917034
  0
LINE
  5
1F5
100
AcDbEntity
  8
M0
  6
CONTINUOUS
370
13
 62
     7
100
AcDbLine
 10
76.633128
 20
111.680922
 11
66.723335
 21
111.680922
  0
LINE
  5
1F6
100
AcDbEntity
  8
M0
  6
CONTINUOUS
370
13
100
AcDbLine
 10
74.733336
 20
53.022953
 11
74.733336
 21
109.142008
  0
LINE
  5
1F7
100
AcDbEntity
  8
M0
  6
CONTINUOUS
370
13
100
AcDbLine
 10
68.623128
 20
48.603916
 11
68.623128
 21
109.142008
  0
CIRCLE
  5
1F8
100
AcDbEntity
  8
M0
  6
CONTINUOUS
370
13
100
AcDbCircle
 10
71.678232
 20
109.798978
 40
0.65697
  0
CIRCLE
  5
1F9
100
AcDbEntity
  8
M0
  6
CONTINUOUS
370
13
100
AcDbCircle
 10
68.623128
 20
109.798978
 40
0.65697
  0
CIRCLE
  5
1FA
100
AcDbEntity
  8
M0
  6
CONTINUOUS
370
13
100
AcDbCircle
 10
74.733336
 20
109.798978
 40
0.65697
  0
TEXT
  5
1FB
100
AcDbEntity
  8
M0
100
AcDbText
 10
66.745967
 20
112.180725
 40
2.688492
  1
ＣＮ２０１
 41
0.643939
  7
STANDARD
100
AcDbText
  0
LINE
  5
1FC
100
AcDbEntity
  8
M0
  6
CONTINUOUS
370
13
100
AcDbLine
 10
157.303935
 20
88.356353
 11
147.444123
 21
89.676412
  0
LINE
  5
1FD
100
AcDbEntity
  8
M0
  6
CONTINUOUS
370
13
100
AcDbLine
 10
157.303935
 20
92.778264
 11
141.742144
 21
97.201611
  0
LINE
  5
1FE
100
AcDbEntity
  8
M0
  6
CONTINUOUS
370
13
100
AcDbLine
 10
205.969685
 20
76.540536
 11
208.622834
 21
76.540536
  0
LINE
  5
1FF
100
AcDbEntity
  8
M0
  6
CONTINUOUS
370
13
100
AcDbLine
 10
211.718171
 20
69.528732
 11
211.718171
 21
87.972814
  0
LINE
  5
200
100
AcDbEntity
  8
M0
  6
CONTINUOUS
370
13
100
AcDbLine
 10
205.969685
 20
72.118626
 11
208.622834
 21
72.118626
  0
LINE
  5
201
100
AcDbEntity
  8
M0
  6
CONTINUOUS
370
13
100
AcDbLine
 10
202.87435
 20
87.972814
 11
202.87435
 21
69.528732
  0
LINE
  5
202
100
AcDbEntity
  8
M0
  6
CONTINUOUS
370
13
100
AcDbLine
 10
208.622833
 20
85.382921
 11
205.969687
 21
85.382921
  0
LINE
  5
203
100
AcDbEntity
  8
M0
  6
CONTINUOUS
370
13
100
AcDbLine
 10
202.87435
 20
87.972814
 11
211.718171
 21
87.972814
  0
LINE
  5
204
100
AcDbEntity
  8
M0
  6
DASHDOT
370
13
100
AcDbLine
 10
196.809316
 20
93.86422
 11
196.809316
 21
58.56822
  0
LINE
  5
205
100
AcDbEntity
  8
M0
  6
DASHDOT
370
13
100
AcDbLine
 10
225.526772
 20
58.56822
 11
196.809316
 21
58.56822
  0
LINE
  5
206
100
AcDbEntity
  8
M0
  6
CONTINUOUS
370
13
100
AcDbLine
 10
205.969685
 20
80.962447
 11
208.622834
 21
80.962447
  0
LINE
  5
207
100
AcDbEntity
  8
M0
  6
CONTINUOUS
370
13
100
AcDbLine
 10
211.718171
 20
69.528732
 11
202.87435
 21
69.528732
  0
LINE
  5
208
100
AcDbEntity
  8
M0
  6
DASHDOT
370
13
100
AcDbLine
 10
225.526772
 20
93.86422
 11
196.809316
 21
93.86422
  0
CIRCLE
  5
209
100
AcDbEntity
  8
M0
  6
CONTINUOUS
370
13
100
AcDbCircle
 10
209.507216
 20
76.540536
 40
0.884382
  0
CIRCLE
  5
20A
100
AcDbEntity
  8
M0
  6
CONTINUOUS
370
13
100
AcDbCircle
 10
205.085304
 20
85.382921
 40
0.884382
  0
CIRCLE
  5
20B
100
AcDbEntity
  8
M0
  6
CONTINUOUS
370
13
100
AcDbCircle
 10
209.507216
 20
80.962447
 40
0.884382
  0
CIRCLE
  5
20C
100
AcDbEntity
  8
M0
  6
CONTINUOUS
370
13
100
AcDbCircle
 10
209.507216
 20
85.384357
 40
0.884382
  0
CIRCLE
  5
20D
100
AcDbEntity
  8
M0
  6
CONTINUOUS
370
13
100
AcDbCircle
 10
209.507216
 20
72.118626
 40
0.884382
  0
CIRCLE
  5
20E
100
AcDbEntity
  8
M0
  6
CONTINUOUS
370
13
100
AcDbCircle
 10
205.085304
 20
72.117189
 40
0.884382
  0
CIRCLE
  5
20F
100
AcDbEntity
  8
M0
  6
CONTINUOUS
370
13
100
AcDbCircle
 10
205.085304
 20
76.5391
 40
0.884382
  0
CIRCLE
  5
210
100
AcDbEntity
  8
M0
  6
CONTINUOUS
370
13
100
AcDbCircle
 10
205.085304
 20
80.96101
 40
0.884382
  0
TEXT
  5
211
100
AcDbEntity
  8
M0
100
AcDbText
 10
200.011105
 20
81.846828
 40
2.94794
  1
茶
 41
0.833333
  7
STANDARD
100
AcDbText
  0
TEXT
  5
212
100
AcDbEntity
  8
M0
100
AcDbText
 10
200.002895
 20
77.342392
 40
2.94794
  1
白
 41
0.833333
  7
STANDARD
100
AcDbText
  0
TEXT
  5
213
100
AcDbEntity
  8
M0
100
AcDbText
 10
203.073626
 20
51.919773
 40
3.67
  1
貯湯ユニット
 41
0.694823
  7
STANDARD
100
AcDbText
  0
TEXT
  5
214
100
AcDbEntity
  8
M0
100
AcDbText
 10
199.99844
 20
72.442589
 40
2.94794
  1
黒
 41
0.833333
  7
STANDARD
100
AcDbText
  0
TEXT
  5
215
100
AcDbEntity
  8
M0
100
AcDbText
 10
200.011105
 20
86.268734
 40
2.94794
  1
赤
 41
0.833333
  7
STANDARD
100
AcDbText
  0
TEXT
  5
216
100
AcDbEntity
  8
M0
100
AcDbText
 10
202.491945
 20
65.00954
 40
3.67
  1
ヒータ電源
 41
0.694823
  7
STANDARD
100
AcDbText
  0
TEXT
  5
217
100
AcDbEntity
  8
M0
100
AcDbText
 10
202.491943
 20
59.87154
 40
3.67
  1
端子台
 41
0.694823
  7
STANDARD
100
AcDbText
  0
LINE
  5
218
100
AcDbEntity
  8
M0
  6
CONTINUOUS
370
13
100
AcDbLine
 10
154.837926
 20
129.535647
 11
154.837926
 21
135.80002
  0
LINE
  5
219
100
AcDbEntity
  8
M0
  6
CONTINUOUS
370
13
100
AcDbLine
 10
154.837926
 20
132.667834
 11
163.858623
 21
132.667834
  0
LINE
  5
21A
100
AcDbEntity
  8
M0
  6
CONTINUOUS
370
13
100
AcDbLine
 10
163.858623
 20
135.80002
 11
154.837926
 21
135.80002
  0
LINE
  5
21B
100
AcDbEntity
  8
M0
  6
CONTINUOUS
370
13
100
AcDbLine
 10
154.837926
 20
129.535647
 11
163.858623
 21
129.535647
  0
LINE
  5
21C
100
AcDbEntity
  8
M0
  6
CONTINUOUS
370
13
100
AcDbLine
 10
163.858623
 20
129.535647
 11
163.858623
 21
135.80002
  0
LINE
  5
21D
100
AcDbEntity
  8
M0
  6
CONTINUOUS
370
13
100
AcDbLine
 10
154.711529
 20
165.967699
 11
157.243197
 21
164.506039
  0
LINE
  5
21E
100
AcDbEntity
  8
M0
  6
CONTINUOUS
370
13
100
AcDbLine
 10
161.854024
 20
252.142025
 11
161.854024
 21
247.756882
  0
LINE
  5
21F
100
AcDbEntity
  8
M0
  6
CONTINUOUS
370
13
100
AcDbLine
 10
154.711529
 20
168.891018
 11
157.243197
 21
167.429358
  0
LINE
  5
220
100
AcDbEntity
  8
M0
  6
CONTINUOUS
370
13
100
AcDbLine
 10
154.213524
 20
227.974042
 11
163.234221
 21
227.974042
  0
LINE
  5
221
100
AcDbEntity
  8
M0
  6
CONTINUOUS
370
13
100
AcDbLine
 10
154.223338
 20
190.90685
 11
157.731387
 21
190.90685
  0
LINE
  5
222
100
AcDbEntity
  8
M0
  6
CONTINUOUS
370
13
100
AcDbLine
 10
155.977363
 20
160.85189
 11
157.243197
 21
161.58272
  0
LINE
  5
223
100
AcDbEntity
  8
M0
  6
CONTINUOUS
370
13
100
AcDbLine
 10
155.977363
 20
169.621848
 11
154.711529
 21
168.891018
  0
LINE
  5
224
100
AcDbEntity
  8
M0
  6
CONTINUOUS
370
13
100
AcDbLine
 10
154.223338
 20
159.732063
 11
154.223338
 21
170.799908
  0
LINE
  5
4F
102
{ACAD_REACTORS
330
4E
102
}
330
1F
100
AcDbEntity
  8
M0
  6
CONTINUOUS
370
13
100
AcDbLine
 10
157.731387
 20
170.799908
 11
157.731387
 21
159.732063
  0
LINE
  5
225
100
AcDbEntity
  8
M0
  6
CONTINUOUS
370
13
100
AcDbLine
 10
154.223338
 20
159.732063
 11
157.731387
 21
159.732063
  0
LINE
  5
226
100
AcDbEntity
  8
M0
  6
CONTINUOUS
370
13
100
AcDbLine
 10
154.711529
 20
163.04438
 11
157.243197
 21
164.506039
  0
LINE
  5
227
100
AcDbEntity
  8
M0
  6
CONTINUOUS
370
13
100
AcDbLine
 10
154.711529
 20
163.04438
 11
157.243197
 21
161.58272
  0
LINE
  5
228
100
AcDbEntity
  8
M0
  6
CONTINUOUS
370
13
100
AcDbLine
 10
154.213524
 20
224.841855
 11
163.234221
 21
224.841855
  0
LINE
  5
229
100
AcDbEntity
  8
M0
  6
CONTINUOUS
370
13
100
AcDbLine
 10
154.223338
 20
170.799908
 11
157.731387
 21
170.799908
  0
LINE
  5
22A
100
AcDbEntity
  8
M0
  6
CONTINUOUS
370
13
100
AcDbLine
 10
161.854024
 20
252.142025
 11
155.977363
 21
252.142025
  0
LINE
  5
22B
100
AcDbEntity
  8
M0
  6
CONTINUOUS
370
13
100
AcDbLine
 10
154.711529
 20
165.967699
 11
157.243197
 21
167.429358
  0
LINE
  5
22C
100
AcDbEntity
  8
M0
  6
CONTINUOUS
370
13
100
AcDbLine
 10
155.977363
 20
169.621848
 11
155.977363
 21
180.958832
  0
LINE
  5
22D
100
AcDbEntity
  8
M0
  6
CONTINUOUS
370
13
100
AcDbLine
 10
154.711529
 20
186.074641
 11
157.243197
 21
187.5363
  0
LINE
  5
53
102
{ACAD_REACTORS
330
52
102
}
330
1F
100
AcDbEntity
  8
M0
  6
CONTINUOUS
370
13
100
AcDbLine
 10
157.731387
 20
190.90685
 11
157.731387
 21
179.839005
  0
LINE
  5
22E
100
AcDbEntity
  8
M0
  6
CONTINUOUS
370
13
100
AcDbLine
 10
161.854024
 20
135.80002
 11
161.854024
 21
221.709669
  0
LINE
  5
22F
100
AcDbEntity
  8
M0
  6
CONTINUOUS
370
13
100
AcDbLine
 10
154.223338
 20
179.839005
 11
157.731387
 21
179.839005
  0
LINE
  5
230
100
AcDbEntity
  8
M0
  6
CONTINUOUS
370
13
100
AcDbLine
 10
161.854024
 20
227.974042
 11
161.854024
 21
237.167108
  0
LINE
  5
231
100
AcDbEntity
  8
M0
  6
CONTINUOUS
370
13
100
AcDbLine
 10
154.711529
 20
183.151322
 11
157.243197
 21
184.612981
  0
LINE
  5
232
100
AcDbEntity
  8
M0
  6
CONTINUOUS
370
13
100
AcDbLine
 10
154.711529
 20
186.074641
 11
157.243197
 21
184.612981
  0
LINE
  5
233
100
AcDbEntity
  8
M0
  6
CONTINUOUS
370
13
100
AcDbLine
 10
154.711529
 20
188.99796
 11
157.243197
 21
187.5363
  0
LINE
  5
234
100
AcDbEntity
  8
M0
  6
CONTINUOUS
370
13
100
AcDbLine
 10
163.234221
 20
221.709669
 11
154.213524
 21
221.709669
  0
LINE
  5
235
100
AcDbEntity
  8
M0
  6
CONTINUOUS
370
13
100
AcDbLine
 10
155.977363
 20
189.72879
 11
155.977363
 21
201.068832
  0
LINE
  5
236
100
AcDbEntity
  8
M0
  6
CONTINUOUS
370
13
100
AcDbLine
 10
155.977363
 20
135.80002
 11
155.977363
 21
160.85189
  0
LINE
  5
237
100
AcDbEntity
  8
M0
  6
CONTINUOUS
370
13
100
AcDbLine
 10
154.223338
 20
179.839005
 11
154.223338
 21
190.90685
  0
LINE
  5
238
100
AcDbEntity
  8
M0
  6
CONTINUOUS
370
13
100
AcDbLine
 10
155.977363
 20
180.958832
 11
157.243197
 21
181.689662
  0
LINE
  5
239
100
AcDbEntity
  8
M0
  6
CONTINUOUS
370
13
100
AcDbLine
 10
154.711529
 20
183.151322
 11
157.243197
 21
181.689662
  0
LINE
  5
23A
100
AcDbEntity
  8
M0
  6
CONTINUOUS
370
13
100
AcDbLine
 10
155.977363
 20
189.72879
 11
154.711529
 21
188.99796
  0
LINE
  5
23B
100
AcDbEntity
  8
M0
  6
CONTINUOUS
370
13
100
AcDbLine
 10
155.977363
 20
227.974042
 11
155.977363
 21
252.142025
  0
LINE
  5
23C
100
AcDbEntity
  8
M0
  6
CONTINUOUS
370
13
100
AcDbLine
 10
163.234221
 20
227.974042
 11
163.234221
 21
221.709669
  0
LINE
  5
23D
100
AcDbEntity
  8
M0
  6
CONTINUOUS
370
13
100
AcDbLine
 10
154.213524
 20
227.974042
 11
154.213524
 21
221.709669
  0
CIRCLE
  5
23E
100
AcDbEntity
  8
M0
  6
CONTINUOUS
370
13
100
AcDbCircle
 10
161.854024
 20
246.265364
 40
1.491517
  0
CIRCLE
  5
23F
100
AcDbEntity
  8
M0
  6
CONTINUOUS
370
13
100
AcDbCircle
 10
161.854024
 20
238.658625
 40
1.491517
  0
ARC
  5
58
102
{ACAD_REACTORS
330
57
102
}
330
1F
100
AcDbEntity
  8
M0
  6
CONTINUOUS
370
13
100
AcDbCircle
 10
160.515789
 20
242.461995
 40
6.335645
100
AcDbArc
 50
323.10769
 51
396.89231
  0
POINT
  5
240
100
AcDbEntity
  8
M0
  6
CONTINUOUS
370
13
 62
     4
100
AcDbPoint
 10
166.851434
 20
242.461995
  0
LINE
  5
241
100
AcDbEntity
  8
M0
  6
CONTINUOUS
370
13
 62
     7
100
AcDbLine
 10
269.585643
 20
108.949438
 11
269.585643
 21
124.156641
  0
LINE
  5
242
100
AcDbEntity
  8
M0
  6
CONTINUOUS
370
13
 62
     7
100
AcDbLine
 10
266.665921
 20
115.22398
 11
266.665921
 21
113.066479
  0
LINE
  5
243
100
AcDbEntity
  8
M0
  6
CONTINUOUS
370
13
 62
     7
100
AcDbLine
 10
269.585643
 20
124.156641
 11
264.93641
 21
124.156641
  0
LINE
  5
244
100
AcDbEntity
  8
M0
  6
CONTINUOUS
370
13
 62
     7
100
AcDbLine
 10
267.827652
 20
115.22398
 11
267.827652
 21
113.066479
  0
LINE
  5
245
100
AcDbEntity
  8
M0
  6
CONTINUOUS
370
13
 62
     7
100
AcDbLine
 10
264.93641
 20
108.949438
 11
269.585643
 21
108.949438
  0
LINE
  5
246
100
AcDbEntity
  8
M0
  6
CONTINUOUS
370
13
 62
     7
100
AcDbLine
 10
266.264103
 20
112.600594
 11
268.255643
 21
112.600594
  0
LINE
  5
247
100
AcDbEntity
  8
M0
  6
CONTINUOUS
370
13
 62
     7
100
AcDbLine
 10
266.264103
 20
118.575213
 11
268.255643
 21
118.575213
  0
LINE
  5
248
100
AcDbEntity
  8
M0
  6
CONTINUOUS
370
13
 62
     7
100
AcDbLine
 10
264.93641
 20
124.156641
 11
264.93641
 21
108.949438
  0
LINE
  5
249
100
AcDbEntity
  8
M0
  6
CONTINUOUS
370
13
 62
     7
100
AcDbLine
 10
266.665921
 20
115.22398
 11
267.827652
 21
115.22398
  0
LINE
  5
24A
100
AcDbEntity
  8
M0
  6
CONTINUOUS
370
13
 62
     7
100
AcDbLine
 10
268.255643
 20
112.600594
 11
268.255643
 21
118.575213
  0
LINE
  5
24B
100
AcDbEntity
  8
M0
  6
CONTINUOUS
370
13
 62
     7
100
AcDbLine
 10
266.665921
 20
113.066479
 11
267.827652
 21
113.066479
  0
LINE
  5
24C
100
AcDbEntity
  8
M0
  6
CONTINUOUS
370
13
 62
     7
100
AcDbLine
 10
266.264103
 20
112.600594
 11
266.264103
 21
118.575213
  0
LINE
  5
24D
100
AcDbEntity
  8
M0
  6
CONTINUOUS
370
13
 62
     7
100
AcDbLine
 10
266.264103
 20
115.587904
 11
268.255643
 21
115.587904
  0
TEXT
  5
24E
100
AcDbEntity
  8
M0
 62
     7
100
AcDbText
 10
266.452929
 20
118.546756
 40
2.619344
  1
１
 41
0.645833
  7
STANDARD
100
AcDbText
  0
TEXT
  5
24F
100
AcDbEntity
  8
M0
 62
     7
100
AcDbText
 10
265.38756
 20
121.239352
 40
2.619344
  1
ＯＮ
 41
0.645833
  7
STANDARD
100
AcDbText
  0
TEXT
  5
250
100
AcDbEntity
  8
M0
 62
     7
100
AcDbText
 10
259.977303
 20
126.138631
 40
2.910382
  1
＜ＳＷ２０２＞
 41
0.645833
  7
STANDARD
100
AcDbText
  0
LINE
  5
251
100
AcDbEntity
  8
M0
  6
CONTINUOUS
370
13
100
AcDbLine
 10
88.022296
 20
135.371938
 11
87.557205
 21
135.837029
  0
LINE
  5
252
100
AcDbEntity
  8
M0
  6
CONTINUOUS
370
13
100
AcDbLine
 10
89.179501
 20
136.366248
 11
85.411587
 21
136.366248
  0
LINE
  5
253
100
AcDbEntity
  8
M0
  6
CONTINUOUS
370
13
100
AcDbLine
 10
89.179501
 20
133.016992
 11
85.411587
 21
133.016992
  0
LINE
  5
254
100
AcDbEntity
  8
M0
  6
CONTINUOUS
370
13
100
AcDbLine
 10
82.585652
 20
130.086392
 11
91.482115
 21
130.086392
  0
LINE
  5
255
100
AcDbEntity
  8
M0
  6
CONTINUOUS
370
13
100
AcDbLine
 10
88.91784
 20
136.104587
 11
88.91784
 21
135.371938
  0
LINE
  5
256
100
AcDbEntity
  8
M0
  6
CONTINUOUS
370
13
100
AcDbLine
 10
88.91784
 20
135.371938
 11
87.557205
 21
135.371938
  0
LINE
  5
257
100
AcDbEntity
  8
M0
  6
CONTINUOUS
370
13
100
AcDbLine
 10
88.91784
 20
136.104587
 11
87.557205
 21
136.104587
  0
LINE
  5
258
100
AcDbEntity
  8
M0
  6
CONTINUOUS
370
13
100
AcDbLine
 10
87.295544
 20
136.366248
 11
87.295544
 21
135.110277
  0
LINE
  5
259
100
AcDbEntity
  8
M0
  6
CONTINUOUS
370
13
100
AcDbLine
 10
88.170314
 20
133.278652
 11
87.557205
 21
133.891761
  0
LINE
  5
25A
100
AcDbEntity
  8
M0
  6
CONTINUOUS
370
13
100
AcDbLine
 10
88.91784
 20
135.95657
 11
88.769822
 21
136.104587
  0
LINE
  5
25B
100
AcDbEntity
  8
M0
  6
CONTINUOUS
370
13
100
AcDbLine
 10
88.318331
 20
135.371938
 11
87.585681
 21
136.104587
  0
LINE
  5
25C
100
AcDbEntity
  8
M0
  6
CONTINUOUS
370
13
100
AcDbLine
 10
89.179501
 20
132.179678
 11
85.411587
 21
132.179678
  0
LINE
  5
25D
100
AcDbEntity
  8
M0
  6
CONTINUOUS
370
13
100
AcDbLine
 10
89.179501
 20
130.923706
 11
85.411587
 21
130.923706
  0
LINE
  5
25E
100
AcDbEntity
  8
M0
  6
CONTINUOUS
370
13
100
AcDbLine
 10
88.91784
 20
135.808552
 11
88.621805
 21
136.104587
  0
LINE
  5
25F
100
AcDbEntity
  8
M0
  6
CONTINUOUS
370
13
100
AcDbLine
 10
88.466349
 20
137.465223
 11
87.733699
 21
138.197873
  0
LINE
  5
260
100
AcDbEntity
  8
M0
  6
CONTINUOUS
370
13
100
AcDbLine
 10
87.295544
 20
138.459533
 11
87.295544
 21
137.203562
  0
LINE
  5
261
100
AcDbEntity
  8
M0
  6
CONTINUOUS
370
13
100
AcDbLine
 10
87.557205
 20
136.104587
 11
87.557205
 21
135.371938
  0
LINE
  5
262
100
AcDbEntity
  8
M0
  6
CONTINUOUS
370
13
100
AcDbLine
 10
89.179501
 20
134.272963
 11
85.411587
 21
134.272963
  0
LINE
  5
263
100
AcDbEntity
  8
M0
  6
CONTINUOUS
370
13
100
AcDbLine
 10
89.179501
 20
135.110277
 11
85.411587
 21
135.110277
  0
LINE
  5
264
100
AcDbEntity
  8
M0
  6
CONTINUOUS
370
13
100
AcDbLine
 10
87.295544
 20
134.272963
 11
87.295544
 21
133.016992
  0
LINE
  5
265
100
AcDbEntity
  8
M0
  6
CONTINUOUS
370
13
100
AcDbLine
 10
88.762384
 20
135.371938
 11
88.029734
 21
136.104587
  0
LINE
  5
266
100
AcDbEntity
  8
M0
  6
CONTINUOUS
370
13
100
AcDbLine
 10
88.614367
 20
135.371938
 11
87.881717
 21
136.104587
  0
LINE
  5
267
100
AcDbEntity
  8
M0
  6
CONTINUOUS
370
13
100
AcDbLine
 10
87.295544
 20
132.179678
 11
87.295544
 21
130.923706
  0
LINE
  5
268
100
AcDbEntity
  8
M0
  6
CONTINUOUS
370
13
100
AcDbLine
 10
88.022296
 20
139.558508
 11
87.557205
 21
140.0236
  0
LINE
  5
269
100
AcDbEntity
  8
M0
  6
CONTINUOUS
370
13
100
AcDbLine
 10
88.91784
 20
139.847105
 11
88.473787
 21
140.291158
  0
LINE
  5
26A
100
AcDbEntity
  8
M0
  6
CONTINUOUS
370
13
100
AcDbLine
 10
89.179501
 20
140.552819
 11
85.411587
 21
140.552819
  0
LINE
  5
26B
100
AcDbEntity
  8
M0
  6
CONTINUOUS
370
13
100
AcDbLine
 10
88.91784
 20
139.558508
 11
87.557205
 21
139.558508
  0
LINE
  5
26C
100
AcDbEntity
  8
M0
  6
CONTINUOUS
370
13
100
AcDbLine
 10
88.91784
 20
140.291158
 11
88.91784
 21
139.558508
  0
LINE
  5
26D
100
AcDbEntity
  8
M0
  6
CONTINUOUS
370
13
100
AcDbLine
 10
88.91784
 20
140.291158
 11
87.557205
 21
140.291158
  0
LINE
  5
26E
100
AcDbEntity
  8
M0
  6
CONTINUOUS
370
13
100
AcDbLine
 10
88.910402
 20
139.558508
 11
88.177752
 21
140.291158
  0
LINE
  5
26F
100
AcDbEntity
  8
M0
  6
CONTINUOUS
370
13
100
AcDbLine
 10
88.91784
 20
141.94039
 11
88.473787
 21
142.384443
  0
LINE
  5
270
100
AcDbEntity
  8
M0
  6
CONTINUOUS
370
13
100
AcDbLine
 10
88.91784
 20
139.699088
 11
88.32577
 21
140.291158
  0
LINE
  5
271
100
AcDbEntity
  8
M0
  6
CONTINUOUS
370
13
100
AcDbLine
 10
87.726261
 20
139.558508
 11
87.557205
 21
139.727564
  0
LINE
  5
272
100
AcDbEntity
  8
M0
  6
CONTINUOUS
370
13
100
AcDbLine
 10
89.179501
 20
142.646104
 11
89.179501
 21
141.390133
  0
LINE
  5
273
100
AcDbEntity
  8
M0
  6
CONTINUOUS
370
13
100
AcDbLine
 10
88.466349
 20
139.558508
 11
87.733699
 21
140.291158
  0
LINE
  5
274
100
AcDbEntity
  8
M0
  6
CONTINUOUS
370
13
100
AcDbLine
 10
89.179501
 20
139.296848
 11
85.411587
 21
139.296848
  0
LINE
  5
275
100
AcDbEntity
  8
M0
  6
CONTINUOUS
370
13
100
AcDbLine
 10
87.557205
 20
140.291158
 11
87.557205
 21
139.558508
  0
LINE
  5
276
100
AcDbEntity
  8
M0
  6
CONTINUOUS
370
13
100
AcDbLine
 10
88.762384
 20
139.558508
 11
88.029734
 21
140.291158
  0
LINE
  5
277
100
AcDbEntity
  8
M0
  6
CONTINUOUS
370
13
100
AcDbLine
 10
88.614367
 20
139.558508
 11
87.881717
 21
140.291158
  0
LINE
  5
278
100
AcDbEntity
  8
M0
  6
CONTINUOUS
370
13
100
AcDbLine
 10
88.91784
 20
140.14314
 11
88.769822
 21
140.291158
  0
LINE
  5
279
100
AcDbEntity
  8
M0
  6
CONTINUOUS
370
13
100
AcDbLine
 10
87.295544
 20
140.552819
 11
87.295544
 21
139.296848
  0
LINE
  5
27A
100
AcDbEntity
  8
M0
  6
CONTINUOUS
370
13
100
AcDbLine
 10
88.318331
 20
139.558508
 11
87.585681
 21
140.291158
  0
LINE
  5
27B
100
AcDbEntity
  8
M0
  6
CONTINUOUS
370
13
100
AcDbLine
 10
88.466349
 20
141.651793
 11
87.733699
 21
142.384443
  0
LINE
  5
27C
100
AcDbEntity
  8
M0
  6
CONTINUOUS
370
13
100
AcDbLine
 10
88.91784
 20
139.995123
 11
88.621805
 21
140.291158
  0
LINE
  5
27D
100
AcDbEntity
  8
M0
  6
CONTINUOUS
370
13
100
AcDbLine
 10
87.295544
 20
142.646104
 11
87.295544
 21
141.390133
  0
LINE
  5
27E
100
AcDbEntity
  8
M0
  6
CONTINUOUS
370
13
100
AcDbLine
 10
87.578243
 20
141.651793
 11
87.557205
 21
141.672832
  0
LINE
  5
27F
100
AcDbEntity
  8
M0
  6
CONTINUOUS
370
13
100
AcDbLine
 10
88.318331
 20
141.651793
 11
87.585682
 21
142.384443
  0
LINE
  5
280
100
AcDbEntity
  8
M0
  6
CONTINUOUS
370
13
100
AcDbLine
 10
87.874278
 20
141.651793
 11
87.557205
 21
141.968867
  0
LINE
  5
281
100
AcDbEntity
  8
M0
  6
CONTINUOUS
370
13
100
AcDbLine
 10
87.726261
 20
141.651793
 11
87.557205
 21
141.82085
  0
LINE
  5
282
100
AcDbEntity
  8
M0
  6
CONTINUOUS
370
13
100
AcDbLine
 10
88.762384
 20
141.651793
 11
88.029734
 21
142.384443
  0
LINE
  5
283
100
AcDbEntity
  8
M0
  6
CONTINUOUS
370
13
100
AcDbLine
 10
87.874278
 20
139.558508
 11
87.557205
 21
139.875582
  0
TEXT
  5
284
100
AcDbEntity
  8
M0
100
AcDbText
 10
85.208823
 20
135.317591
 40
1.046643
  1
３
 50
90.000003
 41
0.983333
  7
STANDARD
100
AcDbText
  0
TEXT
  5
285
100
AcDbEntity
  8
M0
100
AcDbText
 10
85.208823
 20
133.224314
 40
1.046643
  1
２
 50
90.000003
 41
0.983333
  7
STANDARD
100
AcDbText
  0
TEXT
  5
286
100
AcDbEntity
  8
M0
100
AcDbText
 10
83.813346
 20
130.804473
 40
1.046643
  1
ＯＮ
 50
90.000003
 41
0.833334
  7
STANDARD
100
AcDbText
  0
TEXT
  5
287
100
AcDbEntity
  8
M0
100
AcDbText
 10
85.208823
 20
131.131007
 40
1.046643
  1
１
 50
90.000003
 41
0.983333
  7
STANDARD
100
AcDbText
  0
TEXT
  5
288
100
AcDbEntity
  8
M0
100
AcDbText
 10
85.208823
 20
137.410845
 40
1.046643
  1
４
 50
90.000003
 41
0.983333
  7
STANDARD
100
AcDbText
  0
TEXT
  5
289
100
AcDbEntity
  8
M0
100
AcDbText
 10
81.768973
 20
131.597026
 40
2.69
  1
ＳＷ２０１
 50
90.000003
 41
0.638166
  7
STANDARD
100
AcDbText
  0
TEXT
  5
28A
100
AcDbEntity
  8
M0
100
AcDbText
 10
85.208823
 20
139.50416
 40
1.046643
  1
５
 50
90.000003
 41
0.983333
  7
STANDARD
100
AcDbText
  0
TEXT
  5
28B
100
AcDbEntity
  8
M0
100
AcDbText
 10
85.208823
 20
141.597415
 40
1.046643
  1
６
 50
90.000003
 41
0.983333
  7
STANDARD
100
AcDbText
  0
LINE
  5
28C
100
AcDbEntity
  8
M0
  6
CONTINUOUS
370
13
100
AcDbLine
 10
85.411587
 20
142.646104
 11
85.411587
 21
141.390133
  0
LINE
  5
28D
100
AcDbEntity
  8
M0
  6
CONTINUOUS
370
13
100
AcDbLine
 10
87.578243
 20
139.558508
 11
87.557205
 21
139.579547
  0
LINE
  5
28E
100
AcDbEntity
  8
M0
  6
CONTINUOUS
370
13
100
AcDbLine
 10
89.179501
 20
141.390133
 11
85.411587
 21
141.390133
  0
LINE
  5
28F
100
AcDbEntity
  8
M0
  6
CONTINUOUS
370
13
100
AcDbLine
 10
88.91784
 20
141.651793
 11
87.557205
 21
141.651793
  0
LINE
  5
290
100
AcDbEntity
  8
M0
  6
CONTINUOUS
370
13
100
AcDbLine
 10
88.614367
 20
141.651793
 11
87.881717
 21
142.384443
  0
LINE
  5
291
100
AcDbEntity
  8
M0
  6
CONTINUOUS
370
13
100
AcDbLine
 10
88.91784
 20
142.236426
 11
88.769822
 21
142.384443
  0
LINE
  5
292
100
AcDbEntity
  8
M0
  6
CONTINUOUS
370
13
100
AcDbLine
 10
89.179501
 20
140.552819
 11
89.179501
 21
139.296848
  0
LINE
  5
293
100
AcDbEntity
  8
M0
  6
CONTINUOUS
370
13
100
AcDbLine
 10
85.411587
 20
140.552819
 11
85.411587
 21
139.296848
  0
LINE
  5
294
100
AcDbEntity
  8
M0
  6
CONTINUOUS
370
13
100
AcDbLine
 10
88.170314
 20
141.651793
 11
87.557205
 21
142.264903
  0
LINE
  5
295
100
AcDbEntity
  8
M0
  6
CONTINUOUS
370
13
100
AcDbLine
 10
88.910402
 20
141.651793
 11
88.177752
 21
142.384443
  0
LINE
  5
296
100
AcDbEntity
  8
M0
  6
CONTINUOUS
370
13
100
AcDbLine
 10
88.91784
 20
141.792373
 11
88.32577
 21
142.384443
  0
LINE
  5
297
100
AcDbEntity
  8
M0
  6
CONTINUOUS
370
13
100
AcDbLine
 10
88.91784
 20
142.384443
 11
87.557205
 21
142.384443
  0
LINE
  5
298
100
AcDbEntity
  8
M0
  6
CONTINUOUS
370
13
100
AcDbLine
 10
88.022296
 20
141.651793
 11
87.557205
 21
142.116885
  0
LINE
  5
299
100
AcDbEntity
  8
M0
  6
CONTINUOUS
370
13
100
AcDbLine
 10
88.91784
 20
142.384443
 11
88.91784
 21
141.651793
  0
LINE
  5
29A
100
AcDbEntity
  8
M0
  6
CONTINUOUS
370
13
100
AcDbLine
 10
88.91784
 20
142.088408
 11
88.621805
 21
142.384443
  0
LINE
  5
29B
100
AcDbEntity
  8
M0
  6
CONTINUOUS
370
13
100
AcDbLine
 10
88.170314
 20
139.558508
 11
87.557205
 21
140.171617
  0
LINE
  5
29C
100
AcDbEntity
  8
M0
  6
CONTINUOUS
370
13
100
AcDbLine
 10
87.557205
 20
142.384443
 11
87.557205
 21
141.651793
  0
LINE
  5
29D
100
AcDbEntity
  8
M0
  6
CONTINUOUS
370
13
100
AcDbLine
 10
89.179501
 20
142.646104
 11
85.411587
 21
142.646104
  0
LINE
  5
29E
100
AcDbEntity
  8
M0
  6
CONTINUOUS
370
13
100
AcDbLine
 10
101.675939
 20
141.015224
 11
102.289048
 21
140.402115
  0
LINE
  5
29F
100
AcDbEntity
  8
M0
  6
CONTINUOUS
370
13
100
AcDbLine
 10
101.231886
 20
141.015224
 11
101.964536
 21
140.282574
  0
LINE
  5
2A0
100
AcDbEntity
  8
M0
  6
CONTINUOUS
370
13
100
AcDbLine
 10
101.823957
 20
141.015224
 11
102.289048
 21
140.550133
  0
LINE
  5
2A1
100
AcDbEntity
  8
M0
  6
CONTINUOUS
370
13
100
AcDbLine
 10
102.119992
 20
141.015224
 11
102.289048
 21
140.846168
  0
LINE
  5
2A2
100
AcDbEntity
  8
M0
  6
CONTINUOUS
370
13
100
AcDbLine
 10
100.935851
 20
141.015224
 11
101.668501
 21
140.282574
  0
LINE
  5
2A3
100
AcDbEntity
  8
M0
  6
CONTINUOUS
370
13
100
AcDbLine
 10
100.928413
 20
140.430592
 11
101.07643
 21
140.282574
  0
LINE
  5
2A4
100
AcDbEntity
  8
M0
  6
CONTINUOUS
370
13
100
AcDbLine
 10
100.928413
 20
141.015224
 11
102.289048
 21
141.015224
  0
LINE
  5
2A5
100
AcDbEntity
  8
M0
  6
CONTINUOUS
370
13
100
AcDbLine
 10
100.928413
 20
140.726627
 11
101.372466
 21
140.282574
  0
LINE
  5
2A6
100
AcDbEntity
  8
M0
  6
CONTINUOUS
370
13
100
AcDbLine
 10
100.928413
 20
140.282574
 11
102.289048
 21
140.282574
  0
LINE
  5
2A7
100
AcDbEntity
  8
M0
  6
CONTINUOUS
370
13
100
AcDbLine
 10
100.928413
 20
140.282574
 11
100.928413
 21
141.015224
  0
LINE
  5
2A8
100
AcDbEntity
  8
M0
  6
CONTINUOUS
370
13
100
AcDbLine
 10
101.379904
 20
141.015224
 11
102.112554
 21
140.282574
  0
LINE
  5
2A9
100
AcDbEntity
  8
M0
  6
CONTINUOUS
370
13
100
AcDbLine
 10
100.928413
 20
140.57861
 11
101.224448
 21
140.282574
  0
LINE
  5
2AA
100
AcDbEntity
  8
M0
  6
CONTINUOUS
370
13
100
AcDbLine
 10
101.083869
 20
141.015224
 11
101.816519
 21
140.282574
  0
LINE
  5
2AB
100
AcDbEntity
  8
M0
  6
CONTINUOUS
370
13
100
AcDbLine
 10
101.971974
 20
141.015224
 11
102.289048
 21
140.69815
  0
LINE
  5
2AC
100
AcDbEntity
  8
M0
  6
CONTINUOUS
370
13
100
AcDbLine
 10
100.928413
 20
140.874645
 11
101.520483
 21
140.282574
  0
LINE
  5
2AD
100
AcDbEntity
  8
M0
  6
CONTINUOUS
370
13
100
AcDbLine
 10
102.289048
 20
140.282574
 11
102.289048
 21
141.015224
  0
LINE
  5
2AE
100
AcDbEntity
  8
M0
  6
CONTINUOUS
370
13
100
AcDbLine
 10
100.666752
 20
140.020914
 11
100.666752
 21
141.276885
  0
LINE
  5
2AF
100
AcDbEntity
  8
M0
  6
CONTINUOUS
370
13
100
AcDbLine
 10
104.434666
 20
141.276885
 11
100.666752
 21
141.276885
  0
LINE
  5
2B0
100
AcDbEntity
  8
M0
  6
CONTINUOUS
370
13
100
AcDbLine
 10
107.260601
 20
142.116885
 11
98.364138
 21
142.116885
  0
LINE
  5
2B1
100
AcDbEntity
  8
M0
  6
CONTINUOUS
370
13
100
AcDbLine
 10
101.527922
 20
141.015224
 11
102.260571
 21
140.282574
  0
LINE
  5
2B2
100
AcDbEntity
  8
M0
  6
CONTINUOUS
370
13
100
AcDbLine
 10
104.434666
 20
140.020914
 11
104.434666
 21
141.276885
  0
LINE
  5
2B3
100
AcDbEntity
  8
M0
  6
CONTINUOUS
370
13
100
AcDbLine
 10
102.550709
 20
140.020914
 11
102.550709
 21
141.276885
  0
LINE
  5
2B4
100
AcDbEntity
  8
M0
  6
CONTINUOUS
370
13
100
AcDbLine
 10
100.666752
 20
140.020914
 11
104.434666
 21
140.020914
  0
LINE
  5
2B5
100
AcDbEntity
  8
M0
  6
CONTINUOUS
370
13
100
AcDbLine
 10
107.260601
 20
139.1836
 11
107.260601
 21
142.116885
  0
LINE
  5
2B6
100
AcDbEntity
  8
M0
  6
CONTINUOUS
370
13
100
AcDbLine
 10
98.364138
 20
139.1836
 11
107.260601
 21
139.1836
  0
LINE
  5
2B7
100
AcDbEntity
  8
M0
  6
CONTINUOUS
370
13
100
AcDbLine
 10
98.364138
 20
142.116885
 11
98.364138
 21
139.1836
  0
ARC
  5
2B8
100
AcDbEntity
  8
M0
  6
DASHED
370
13
100
AcDbCircle
 10
187.493008
 20
80.96101
 40
0.49
100
AcDbArc
 50
0.0
 51
180.0
  0
ARC
  5
2B9
100
AcDbEntity
  8
M0
  6
DASHED
370
13
100
AcDbCircle
 10
187.551333
 20
85.382921
 40
0.49
100
AcDbArc
 50
0.0
 51
180.0
  0
ARC
  5
2BA
100
AcDbEntity
  8
M0
  6
DASHED
370
13
100
AcDbCircle
 10
183.127986
 20
85.382932
 40
0.49
100
AcDbArc
 50
0.0
 51
180.0
  0
ARC
  5
2BB
100
AcDbEntity
  8
M0
  6
DASHED
370
13
100
AcDbCircle
 10
183.069661
 20
80.961022
 40
0.49
100
AcDbArc
 50
0.0
 51
180.0
  0
ARC
  5
2BC
100
AcDbEntity
  8
M0
  6
CONTINUOUS
370
13
100
AcDbCircle
 10
147.427227
 20
92.853357
 40
0.49
100
AcDbArc
 50
90.0
 51
270.0
  0
ARC
  5
2BD
100
AcDbEntity
  8
M0
  6
CONTINUOUS
370
13
100
AcDbCircle
 10
147.427227
 20
95.644643
 40
0.49
100
AcDbArc
 50
90.0
 51
270.0
  0
TEXT
  5
2BE
100
AcDbEntity
  8
M0
100
AcDbText
 10
107.022849
 20
139.719386
 40
1.046643
  1
ＯＮ
 50
89.999975
 41
0.833334
  7
STANDARD
100
AcDbText
  0
TEXT
  5
2BF
100
AcDbEntity
  8
M0
100
AcDbText
 10
104.637443
 20
141.069579
 40
1.046643
  1
５
 50
269.999973
 41
0.983333
  7
STANDARD
100
AcDbText
  0
TEXT
  5
2C0
100
AcDbEntity
  8
M0
100
AcDbText
 10
111.045493
 20
135.419825
 40
2.69
  1
ＳＷ２０２
 50
89.999982
 41
0.638166
  7
STANDARD
100
AcDbText
  0
LINE
  5
2C1
100
AcDbEntity
  8
M0
  6
CONTINUOUS
370
25
100
AcDbLine
 10
353.389026
 20
196.182868
 11
353.389026
 21
96.229881
  0
LINE
  5
2C2
100
AcDbEntity
  8
M0
  6
CONTINUOUS
370
13
100
AcDbLine
 10
126.044949
 20
44.661161
 11
126.044949
 21
49.565101
  0
LINE
  5
2C3
100
AcDbEntity
  8
M0
  6
CONTINUOUS
370
13
100
AcDbLine
 10
122.464323
 20
48.603916
 11
125.554949
 21
48.603916
  0
LINE
  5
2C4
100
AcDbEntity
  8
M0
  6
CONTINUOUS
370
13
100
AcDbLine
 10
68.623128
 20
48.603916
 11
121.484323
 21
48.603916
  0
LINE
  5
2C5
100
AcDbEntity
  8
M0
  6
CONTINUOUS
370
13
100
AcDbLine
 10
74.733336
 20
53.022953
 11
121.484323
 21
53.022953
  0
LINE
  5
2C6
100
AcDbEntity
  8
M0
  6
CONTINUOUS
370
13
100
AcDbLine
 10
88.91784
 20
133.863285
 11
88.769822
 21
134.011302
  0
LINE
  5
2C7
100
AcDbEntity
  8
M0
  6
CONTINUOUS
370
13
100
AcDbLine
 10
87.578243
 20
135.371938
 11
87.557205
 21
135.392976
  0
LINE
  5
2C8
100
AcDbEntity
  8
M0
  6
CONTINUOUS
370
13
100
AcDbLine
 10
87.578243
 20
133.278652
 11
87.557205
 21
133.299691
  0
LINE
  5
2C9
100
AcDbEntity
  8
M0
  6
CONTINUOUS
370
13
100
AcDbLine
 10
85.411587
 20
134.272963
 11
85.411587
 21
133.016992
  0
LINE
  5
2CA
100
AcDbEntity
  8
M0
  6
CONTINUOUS
370
13
100
AcDbLine
 10
85.411587
 20
138.459533
 11
85.411587
 21
137.203562
  0
LINE
  5
2CB
100
AcDbEntity
  8
M0
  6
CONTINUOUS
370
13
100
AcDbLine
 10
89.179501
 20
132.179678
 11
89.179501
 21
130.923706
  0
LINE
  5
2CC
100
AcDbEntity
  8
M0
  6
CONTINUOUS
370
13
100
AcDbLine
 10
89.179501
 20
137.203562
 11
85.411587
 21
137.203562
  0
LINE
  5
2CD
100
AcDbEntity
  8
M0
  6
CONTINUOUS
370
13
100
AcDbLine
 10
85.411587
 20
132.179678
 11
85.411587
 21
130.923706
  0
LINE
  5
2CE
100
AcDbEntity
  8
M0
  6
CONTINUOUS
370
13
100
AcDbLine
 10
88.614367
 20
137.465223
 11
87.881717
 21
138.197873
  0
LINE
  5
2CF
100
AcDbEntity
  8
M0
  6
CONTINUOUS
370
13
100
AcDbLine
 10
88.91784
 20
137.465223
 11
87.557205
 21
137.465223
  0
LINE
  5
2D0
100
AcDbEntity
  8
M0
  6
CONTINUOUS
370
13
100
AcDbLine
 10
88.91784
 20
138.049855
 11
88.769822
 21
138.197873
  0
LINE
  5
2D1
100
AcDbEntity
  8
M0
  6
CONTINUOUS
370
13
100
AcDbLine
 10
88.318331
 20
137.465223
 11
87.585682
 21
138.197873
  0
LINE
  5
2D2
100
AcDbEntity
  8
M0
  6
CONTINUOUS
370
13
100
AcDbLine
 10
87.578243
 20
137.465223
 11
87.557205
 21
137.486261
  0
LINE
  5
2D3
100
AcDbEntity
  8
M0
  6
CONTINUOUS
370
13
100
AcDbLine
 10
87.874278
 20
137.465223
 11
87.557205
 21
137.782297
  0
LINE
  5
2D4
100
AcDbEntity
  8
M0
  6
CONTINUOUS
370
13
100
AcDbLine
 10
88.762384
 20
137.465223
 11
88.029734
 21
138.197873
  0
LINE
  5
2D5
100
AcDbEntity
  8
M0
  6
CONTINUOUS
370
13
100
AcDbLine
 10
87.726261
 20
137.465223
 11
87.557205
 21
137.634279
  0
LINE
  5
2D6
100
AcDbEntity
  8
M0
  6
CONTINUOUS
370
13
100
AcDbLine
 10
87.874278
 20
135.371938
 11
87.557205
 21
135.689011
  0
LINE
  5
2D7
100
AcDbEntity
  8
M0
  6
CONTINUOUS
370
13
100
AcDbLine
 10
88.91784
 20
138.197873
 11
88.91784
 21
137.465223
  0
LINE
  5
2D8
100
AcDbEntity
  8
M0
  6
CONTINUOUS
370
13
100
AcDbLine
 10
88.022296
 20
137.465223
 11
87.557205
 21
137.930314
  0
LINE
  5
2D9
100
AcDbEntity
  8
M0
  6
CONTINUOUS
370
13
100
AcDbLine
 10
87.726261
 20
133.278652
 11
87.557205
 21
133.447709
  0
LINE
  5
2DA
100
AcDbEntity
  8
M0
  6
CONTINUOUS
370
13
100
AcDbLine
 10
88.91784
 20
133.567249
 11
88.473787
 21
134.011302
  0
LINE
  5
2DB
100
AcDbEntity
  8
M0
  6
CONTINUOUS
370
13
100
AcDbLine
 10
88.91784
 20
137.901838
 11
88.621805
 21
138.197873
  0
LINE
  5
2DC
100
AcDbEntity
  8
M0
  6
CONTINUOUS
370
13
100
AcDbLine
 10
87.557205
 20
138.197873
 11
87.557205
 21
137.465223
  0
LINE
  5
2DD
100
AcDbEntity
  8
M0
  6
CONTINUOUS
370
13
100
AcDbLine
 10
88.91784
 20
134.011302
 11
87.557205
 21
134.011302
  0
LINE
  5
2DE
100
AcDbEntity
  8
M0
  6
CONTINUOUS
370
13
100
AcDbLine
 10
88.91784
 20
134.011302
 11
88.91784
 21
133.278652
  0
LINE
  5
2DF
100
AcDbEntity
  8
M0
  6
CONTINUOUS
370
13
100
AcDbLine
 10
91.482115
 20
130.086392
 11
91.482115
 21
143.483418
  0
LINE
  5
2E0
100
AcDbEntity
  8
M0
  6
CONTINUOUS
370
13
100
AcDbLine
 10
88.91784
 20
133.715267
 11
88.621805
 21
134.011302
  0
LINE
  5
2E1
100
AcDbEntity
  8
M0
  6
CONTINUOUS
370
13
100
AcDbLine
 10
91.482115
 20
143.483418
 11
82.585652
 21
143.483418
  0
LINE
  5
2E2
100
AcDbEntity
  8
M0
  6
CONTINUOUS
370
13
100
AcDbLine
 10
88.910402
 20
133.278652
 11
88.177752
 21
134.011302
  0
LINE
  5
2E3
100
AcDbEntity
  8
M0
  6
CONTINUOUS
370
13
100
AcDbLine
 10
88.91784
 20
133.419232
 11
88.32577
 21
134.011302
  0
LINE
  5
2E4
100
AcDbEntity
  8
M0
  6
CONTINUOUS
370
13
100
AcDbLine
 10
82.585652
 20
130.086392
 11
82.585652
 21
143.483418
  0
LINE
  5
2E5
100
AcDbEntity
  8
M0
  6
CONTINUOUS
370
13
100
AcDbLine
 10
88.170314
 20
135.371938
 11
87.557205
 21
135.985047
  0
LINE
  5
2E6
100
AcDbEntity
  8
M0
  6
CONTINUOUS
370
13
100
AcDbLine
 10
89.179501
 20
138.459533
 11
85.411587
 21
138.459533
  0
LINE
  5
2E7
100
AcDbEntity
  8
M0
  6
CONTINUOUS
370
13
100
AcDbLine
 10
89.179501
 20
134.272963
 11
89.179501
 21
133.016992
  0
LINE
  5
2E8
100
AcDbEntity
  8
M0
  6
CONTINUOUS
370
13
100
AcDbLine
 10
85.411587
 20
136.366248
 11
85.411587
 21
135.110277
  0
LINE
  5
2E9
100
AcDbEntity
  8
M0
  6
CONTINUOUS
370
13
100
AcDbLine
 10
89.179501
 20
136.366248
 11
89.179501
 21
135.110277
  0
LINE
  5
2EA
100
AcDbEntity
  8
M0
  6
CONTINUOUS
370
13
100
AcDbLine
 10
88.170314
 20
137.465223
 11
87.557205
 21
138.078332
  0
LINE
  5
2EB
100
AcDbEntity
  8
M0
  6
CONTINUOUS
370
13
100
AcDbLine
 10
89.179501
 20
139.296848
 11
85.411587
 21
139.296848
  0
LINE
  5
2EC
100
AcDbEntity
  8
M0
  6
CONTINUOUS
370
13
100
AcDbLine
 10
88.91784
 20
137.605802
 11
88.32577
 21
138.197873
  0
LINE
  5
2ED
100
AcDbEntity
  8
M0
  6
CONTINUOUS
370
13
100
AcDbLine
 10
87.557205
 20
134.011302
 11
87.557205
 21
133.278652
  0
LINE
  5
2EE
100
AcDbEntity
  8
M0
  6
CONTINUOUS
370
13
100
AcDbLine
 10
88.910402
 20
137.465223
 11
88.177752
 21
138.197873
  0
LINE
  5
2EF
100
AcDbEntity
  8
M0
  6
CONTINUOUS
370
13
100
AcDbLine
 10
88.91784
 20
138.197873
 11
87.557205
 21
138.197873
  0
LINE
  5
2F0
100
AcDbEntity
  8
M0
  6
CONTINUOUS
370
13
100
AcDbLine
 10
88.022296
 20
133.278652
 11
87.557205
 21
133.743744
  0
LINE
  5
2F1
100
AcDbEntity
  8
M0
  6
CONTINUOUS
370
13
100
AcDbLine
 10
88.91784
 20
137.75382
 11
88.473787
 21
138.197873
  0
LINE
  5
2F2
100
AcDbEntity
  8
M0
  6
CONTINUOUS
370
13
100
AcDbLine
 10
88.91784
 20
133.278652
 11
87.557205
 21
133.278652
  0
LINE
  5
2F3
100
AcDbEntity
  8
M0
  6
CONTINUOUS
370
13
100
AcDbLine
 10
88.910402
 20
135.371938
 11
88.177752
 21
136.104587
  0
LINE
  5
2F4
100
AcDbEntity
  8
M0
  6
CONTINUOUS
370
13
100
AcDbLine
 10
88.762384
 20
133.278652
 11
88.029734
 21
134.011302
  0
LINE
  5
2F5
100
AcDbEntity
  8
M0
  6
CONTINUOUS
370
13
100
AcDbLine
 10
87.874278
 20
133.278652
 11
87.557205
 21
133.595726
  0
LINE
  5
2F6
100
AcDbEntity
  8
M0
  6
CONTINUOUS
370
13
100
AcDbLine
 10
88.91784
 20
135.512517
 11
88.32577
 21
136.104587
  0
LINE
  5
2F7
100
AcDbEntity
  8
M0
  6
CONTINUOUS
370
13
100
AcDbLine
 10
89.179501
 20
138.459533
 11
89.179501
 21
137.203562
  0
LINE
  5
2F8
100
AcDbEntity
  8
M0
  6
CONTINUOUS
370
13
100
AcDbLine
 10
87.726261
 20
135.371938
 11
87.557205
 21
135.540994
  0
LINE
  5
2F9
100
AcDbEntity
  8
M0
  6
CONTINUOUS
370
13
100
AcDbLine
 10
88.466349
 20
133.278652
 11
87.733699
 21
134.011302
  0
LINE
  5
2FA
100
AcDbEntity
  8
M0
  6
CONTINUOUS
370
13
100
AcDbLine
 10
88.318331
 20
133.278652
 11
87.585682
 21
134.011302
  0
LINE
  5
2FB
100
AcDbEntity
  8
M0
  6
CONTINUOUS
370
13
100
AcDbLine
 10
88.466349
 20
135.371938
 11
87.733699
 21
136.104587
  0
LINE
  5
2FC
100
AcDbEntity
  8
M0
  6
CONTINUOUS
370
13
100
AcDbLine
 10
88.91784
 20
135.660535
 11
88.473787
 21
136.104587
  0
LINE
  5
2FD
100
AcDbEntity
  8
M0
  6
CONTINUOUS
370
13
100
AcDbLine
 10
88.614367
 20
133.278652
 11
87.881717
 21
134.011302
  0
ARC
  5
2FE
100
AcDbEntity
  8
M0
  6
CONTINUOUS
370
13
100
AcDbCircle
 10
121.974323
 20
53.022953
 40
0.49
100
AcDbArc
 50
0.0
 51
180.0
  0
ARC
  5
2FF
100
AcDbEntity
  8
M0
  6
CONTINUOUS
370
13
100
AcDbCircle
 10
126.044949
 20
48.603916
 40
0.49
100
AcDbArc
 50
0.0
 51
180.0
  0
ARC
  5
300
100
AcDbEntity
  8
M0
  6
CONTINUOUS
370
13
100
AcDbCircle
 10
121.974323
 20
48.603916
 40
0.49
100
AcDbArc
 50
0.0
 51
180.0
  0
LINE
  5
301
100
AcDbEntity
  8
M0
  6
CONTINUOUS
370
13
100
AcDbLine
 10
88.170314
 20
131.185367
 11
87.557205
 21
131.798476
  0
LINE
  5
302
100
AcDbEntity
  8
M0
  6
CONTINUOUS
370
13
100
AcDbLine
 10
88.91784
 20
131.769999
 11
88.769822
 21
131.918017
  0
LINE
  5
303
100
AcDbEntity
  8
M0
  6
CONTINUOUS
370
13
100
AcDbLine
 10
87.578243
 20
131.185367
 11
87.557205
 21
131.206406
  0
LINE
  5
304
100
AcDbEntity
  8
M0
  6
CONTINUOUS
370
13
100
AcDbLine
 10
87.726261
 20
131.185367
 11
87.557205
 21
131.354423
  0
LINE
  5
305
100
AcDbEntity
  8
M0
  6
CONTINUOUS
370
13
100
AcDbLine
 10
88.91784
 20
131.473964
 11
88.473787
 21
131.918017
  0
LINE
  5
306
100
AcDbEntity
  8
M0
  6
CONTINUOUS
370
13
100
AcDbLine
 10
88.91784
 20
131.918017
 11
87.557205
 21
131.918017
  0
LINE
  5
307
100
AcDbEntity
  8
M0
  6
CONTINUOUS
370
13
100
AcDbLine
 10
88.91784
 20
131.918017
 11
88.91784
 21
131.185367
  0
LINE
  5
308
100
AcDbEntity
  8
M0
  6
CONTINUOUS
370
13
100
AcDbLine
 10
88.91784
 20
131.621982
 11
88.621805
 21
131.918017
  0
LINE
  5
309
100
AcDbEntity
  8
M0
  6
CONTINUOUS
370
13
100
AcDbLine
 10
88.910402
 20
131.185367
 11
88.177752
 21
131.918017
  0
LINE
  5
30A
100
AcDbEntity
  8
M0
  6
CONTINUOUS
370
13
100
AcDbLine
 10
88.91784
 20
131.325946
 11
88.32577
 21
131.918017
  0
LINE
  5
30B
100
AcDbEntity
  8
M0
  6
CONTINUOUS
370
13
100
AcDbLine
 10
87.557205
 20
131.918017
 11
87.557205
 21
131.185367
  0
LINE
  5
30C
100
AcDbEntity
  8
M0
  6
CONTINUOUS
370
13
100
AcDbLine
 10
88.022296
 20
131.185367
 11
87.557205
 21
131.650458
  0
LINE
  5
30D
100
AcDbEntity
  8
M0
  6
CONTINUOUS
370
13
100
AcDbLine
 10
88.91784
 20
131.185367
 11
87.557205
 21
131.185367
  0
LINE
  5
30E
100
AcDbEntity
  8
M0
  6
CONTINUOUS
370
13
100
AcDbLine
 10
88.762384
 20
131.185367
 11
88.029734
 21
131.918017
  0
LINE
  5
30F
100
AcDbEntity
  8
M0
  6
CONTINUOUS
370
13
100
AcDbLine
 10
87.874278
 20
131.185367
 11
87.557205
 21
131.502441
  0
LINE
  5
310
100
AcDbEntity
  8
M0
  6
CONTINUOUS
370
13
100
AcDbLine
 10
88.466349
 20
131.185367
 11
87.733699
 21
131.918017
  0
LINE
  5
311
100
AcDbEntity
  8
M0
  6
CONTINUOUS
370
13
100
AcDbLine
 10
88.318331
 20
131.185367
 11
87.585682
 21
131.918017
  0
LINE
  5
312
100
AcDbEntity
  8
M0
  6
CONTINUOUS
370
13
100
AcDbLine
 10
88.614367
 20
131.185367
 11
87.881717
 21
131.918017
  0
LINE
  5
313
100
AcDbEntity
  8
M0
  6
CONTINUOUS
370
13
 62
     7
100
AcDbLine
 10
262.491061
 20
173.350648
 11
262.491061
 21
171.193147
  0
LINE
  5
314
100
AcDbEntity
  8
M0
  6
CONTINUOUS
370
13
 62
     7
100
AcDbLine
 10
261.32933
 20
171.193147
 11
262.491061
 21
171.193147
  0
LINE
  5
315
100
AcDbEntity
  8
M0
  6
CONTINUOUS
370
13
 62
     7
100
AcDbLine
 10
261.32933
 20
173.350648
 11
261.32933
 21
171.193147
  0
LINE
  5
316
100
AcDbEntity
  8
M0
  6
CONTINUOUS
370
13
 62
     7
100
AcDbLine
 10
261.32933
 20
173.350648
 11
262.491061
 21
173.350648
  0
TEXT
  5
317
100
AcDbEntity
  8
M0
 62
     7
100
AcDbText
 10
307.187455
 20
174.663864
 40
2.910382
  1
標準（出荷時）
 41
0.645833
  7
STANDARD
100
AcDbText
  0
LINE
  5
318
100
AcDbEntity
  8
M0
  6
CONTINUOUS
370
13
 62
     7
100
AcDbLine
 10
316.705776
 20
180.277463
 11
324.740327
 21
180.277463
  0
LINE
  5
319
100
AcDbEntity
  8
M0
  6
CONTINUOUS
370
13
100
AcDbLine
 10
154.223338
 20
211.01685
 11
157.731387
 21
211.01685
  0
LINE
  5
31A
100
AcDbEntity
  8
M0
  6
CONTINUOUS
370
13
100
AcDbLine
 10
154.711529
 20
206.184641
 11
157.243197
 21
207.6463
  0
LINE
  5
5E
102
{ACAD_REACTORS
330
5D
102
}
330
1F
100
AcDbEntity
  8
M0
  6
CONTINUOUS
370
13
100
AcDbLine
 10
157.731387
 20
211.01685
 11
157.731387
 21
199.949005
  0
LINE
  5
31B
100
AcDbEntity
  8
M0
  6
CONTINUOUS
370
13
100
AcDbLine
 10
154.223338
 20
199.949005
 11
157.731387
 21
199.949005
  0
LINE
  5
31C
100
AcDbEntity
  8
M0
  6
CONTINUOUS
370
13
100
AcDbLine
 10
154.711529
 20
203.261322
 11
157.243197
 21
204.722981
  0
LINE
  5
31D
100
AcDbEntity
  8
M0
  6
CONTINUOUS
370
13
100
AcDbLine
 10
154.711529
 20
206.184641
 11
157.243197
 21
204.722981
  0
LINE
  5
31E
100
AcDbEntity
  8
M0
  6
CONTINUOUS
370
13
100
AcDbLine
 10
154.711529
 20
209.10796
 11
157.243197
 21
207.6463
  0
LINE
  5
31F
100
AcDbEntity
  8
M0
  6
CONTINUOUS
370
13
100
AcDbLine
 10
155.977363
 20
209.83879
 11
155.977363
 21
221.709669
  0
LINE
  5
320
100
AcDbEntity
  8
M0
  6
CONTINUOUS
370
13
100
AcDbLine
 10
154.223338
 20
199.949005
 11
154.223338
 21
211.01685
  0
LINE
  5
321
100
AcDbEntity
  8
M0
  6
CONTINUOUS
370
13
100
AcDbLine
 10
155.977363
 20
201.068832
 11
157.243197
 21
201.799662
  0
LINE
  5
322
100
AcDbEntity
  8
M0
  6
CONTINUOUS
370
13
100
AcDbLine
 10
154.711529
 20
203.261322
 11
157.243197
 21
201.799662
  0
LINE
  5
323
100
AcDbEntity
  8
M0
  6
CONTINUOUS
370
13
100
AcDbLine
 10
155.977363
 20
209.83879
 11
154.711529
 21
209.10796
  0
TEXT
  5
324
100
AcDbEntity
  8
M0
 62
     7
100
AcDbText
 10
355.661776
 20
26.161311
 40
4.0
  1
ＲＨＫ－Ｔ５６ＥＫＪ
 41
0.46875
  7
STANDARD
100
AcDbText
  0
TEXT
  5
325
100
AcDbEntity
  8
M0
 62
     7
100
AcDbText
 10
355.661776
 20
29.661311
 40
4.0
  1
ＲＨＫ－Ｔ５６ＥＫＥ
 41
0.46875
  7
STANDARD
100
AcDbText
  0
TEXT
  5
326
100
AcDbEntity
  8
M0
 62
     7
100
AcDbText
 10
379.299771
 20
29.4912
 40
4.5
  1
配線図
 41
0.833333
  7
STANDARD
100
AcDbText
  0
TEXT
  5
327
100
AcDbEntity
  8
M0
 62
     7
100
AcDbText
 10
355.661776
 20
33.161311
 40
4.0
  1
ＲＨＫ－Ｔ５６ＥＫ
 41
0.46875
  7
STANDARD
100
AcDbText
  0
TEXT
  5
328
100
AcDbEntity
  8
M69
100
AcDbText
 10
398.25
 20
4.0
 40
5.0
  1
００３
 41
0.5
  7
STANDARD
100
AcDbText
  0
TEXT
  5
329
100
AcDbEntity
  8
M71
100
AcDbText
 10
319.716667
 20
27.0
 40
5.0
  1
ＮＴＳ
 41
0.633333
  7
STANDARD
100
AcDbText
  0
TEXT
  5
32A
100
AcDbEntity
  8
M73
100
AcDbText
 10
341.549988
 20
10.3
 40
5.5
  1
３ＹＤＡ
 41
0.454545
  7
STANDARD
100
AcDbText
  0
TEXT
  5
32B
100
AcDbEntity
  8
M73
100
AcDbText
 10
354.558346
 20
10.0
 40
8.0
  1
ＢＢ００４７４７３
 41
0.447917
  7
STANDARD
100
AcDbText
  0
TEXT
  5
32C
100
AcDbEntity
  8
M73
100
AcDbText
 10
72.558333
 20
286.799988
 40
8.0
  1
ＢＢ００４７４７３
 50
180.000005
 41
0.552083
  7
STANDARD
100
AcDbText
  0
CIRCLE
  5
32D
100
AcDbEntity
  8
M74
  6
CONTINUOUS
370
25
100
AcDbCircle
 10
402.5
 20
17.5
 40
7.5
  0
TEXT
  5
32E
100
AcDbEntity
  8
M74
100
AcDbText
 10
397.708333
 20
19.6
 40
3.0
  1
ＲＥＧＤ
 41
0.694444
  7
STANDARD
100
AcDbText
  0
TEXT
  5
32F
100
AcDbEntity
  8
M74
100
AcDbText
 10
397.708333
 20
15.5
 40
3.0
  1
２０１４
 41
0.694444
  7
STANDARD
100
AcDbText
  0
TEXT
  5
330
100
AcDbEntity
  8
M74
100
AcDbText
 10
397.708333
 20
12.8
 40
3.0
  1
１０１７
 41
0.694444
  7
STANDARD
100
AcDbText
  0
TEXT
  5
331
100
AcDbEntity
  8
M75
100
AcDbText
 10
249.133333
 20
26.5
 40
4.0
  1
Ｍ．Ｏｓｏｄｏ
 41
0.333333
  7
STANDARD
100
AcDbText
  0
TEXT
  5
332
100
AcDbEntity
  8
M75
100
AcDbText
 10
275.666667
 20
26.5
 40
3.5
  1
２０１４－１０－１７
 41
0.47619
  7
STANDARD
100
AcDbText
  0
TEXT
  5
333
100
AcDbEntity
  8
M75
100
AcDbText
 10
249.133333
 20
21.0
 40
4.0
  1
Ｓ．Ｋａｔａｇｉｒｉ
 41
0.333333
  7
STANDARD
100
AcDbText
  0
TEXT
  5
334
100
AcDbEntity
  8
M75
100
AcDbText
 10
275.666667
 20
21.0
 40
3.5
  1
２０１４－１０－１７
 41
0.47619
  7
STANDARD
100
AcDbText
  0
TEXT
  5
335
100
AcDbEntity
  8
M75
100
AcDbText
 10
249.133333
 20
10.0
 40
4.0
  1
Ｓ．Ｋａｔａｇｉｒｉ
 41
0.333333
  7
STANDARD
100
AcDbText
  0
TEXT
  5
336
100
AcDbEntity
  8
M75
100
AcDbText
 10
275.666667
 20
10.0
 40
3.5
  1
２０１４－１０－１７
 41
0.47619
  7
STANDARD
100
AcDbText
  0
LINE
  5
337
100
AcDbEntity
  8
M79
  6
CONTINUOUS
370
25
 62
     7
100
AcDbLine
 10
25.0
 20
287.0
 11
410.0
 21
287.0
  0
LINE
  5
338
100
AcDbEntity
  8
M79
  6
CONTINUOUS
370
25
 62
     7
100
AcDbLine
 10
25.0
 20
10.0
 11
25.0
 21
287.0
  0
LINE
  5
339
100
AcDbEntity
  8
M79
  6
CONTINUOUS
370
25
 62
     7
100
AcDbLine
 10
410.0
 20
10.0
 11
410.0
 21
287.0
  0
LINE
  5
33A
100
AcDbEntity
  8
M79
  6
CONTINUOUS
370
13
 62
     7
100
AcDbLine
 10
0.0
 20
148.5
 11
25.0
 21
148.5
  0
LINE
  5
33B
100
AcDbEntity
  8
M79
  6
CONTINUOUS
370
13
 62
     7
100
AcDbLine
 10
410.0
 20
148.5
 11
420.0
 21
148.5
  0
LINE
  5
33C
100
AcDbEntity
  8
M79
  6
CONTINUOUS
370
13
 62
     7
100
AcDbLine
 10
20.0
 20
98.5
 11
25.0
 21
98.5
  0
LINE
  5
33D
100
AcDbEntity
  8
M79
  6
CONTINUOUS
370
13
 62
     7
100
AcDbLine
 10
20.0
 20
48.5
 11
25.0
 21
48.5
  0
LINE
  5
33E
100
AcDbEntity
  8
M79
  6
CONTINUOUS
370
13
 62
     7
100
AcDbLine
 10
20.0
 20
198.5
 11
25.0
 21
198.5
  0
LINE
  5
33F
100
AcDbEntity
  8
M79
  6
CONTINUOUS
370
13
 62
     7
100
AcDbLine
 10
20.0
 20
248.5
 11
25.0
 21
248.5
  0
LINE
  5
340
100
AcDbEntity
  8
M79
  6
CONTINUOUS
370
13
 62
     7
100
AcDbLine
 10
410.0
 20
98.5
 11
415.0
 21
98.5
  0
LINE
  5
341
100
AcDbEntity
  8
M79
  6
CONTINUOUS
370
13
 62
     7
100
AcDbLine
 10
410.0
 20
48.5
 11
415.0
 21
48.5
  0
LINE
  5
342
100
AcDbEntity
  8
M79
  6
CONTINUOUS
370
13
 62
     7
100
AcDbLine
 10
410.0
 20
198.5
 11
415.0
 21
198.5
  0
LINE
  5
343
100
AcDbEntity
  8
M79
  6
CONTINUOUS
370
13
 62
     7
100
AcDbLine
 10
410.0
 20
248.5
 11
415.0
 21
248.5
  0
LINE
  5
344
100
AcDbEntity
  8
M79
  6
CONTINUOUS
370
13
 62
     7
100
AcDbLine
 10
210.0
 20
0.0
 11
210.0
 21
10.0
  0
LINE
  5
345
100
AcDbEntity
  8
M79
  6
CONTINUOUS
370
13
 62
     7
100
AcDbLine
 10
160.0
 20
5.0
 11
160.0
 21
10.0
  0
LINE
  5
346
100
AcDbEntity
  8
M79
  6
CONTINUOUS
370
13
 62
     7
100
AcDbLine
 10
110.0
 20
5.0
 11
110.0
 21
10.0
  0
LINE
  5
347
100
AcDbEntity
  8
M79
  6
CONTINUOUS
370
13
 62
     7
100
AcDbLine
 10
60.0
 20
5.0
 11
60.0
 21
10.0
  0
LINE
  5
348
100
AcDbEntity
  8
M79
  6
CONTINUOUS
370
13
 62
     7
100
AcDbLine
 10
260.0
 20
5.0
 11
260.0
 21
10.0
  0
LINE
  5
349
100
AcDbEntity
  8
M79
  6
CONTINUOUS
370
13
 62
     7
100
AcDbLine
 10
310.0
 20
5.0
 11
310.0
 21
10.0
  0
LINE
  5
34A
100
AcDbEntity
  8
M79
  6
CONTINUOUS
370
13
 62
     7
100
AcDbLine
 10
60.0
 20
287.0
 11
60.0
 21
292.0
  0
LINE
  5
34B
100
AcDbEntity
  8
M79
  6
CONTINUOUS
370
13
 62
     7
100
AcDbLine
 10
110.0
 20
287.0
 11
110.0
 21
292.0
  0
LINE
  5
34C
100
AcDbEntity
  8
M79
  6
CONTINUOUS
370
13
 62
     7
100
AcDbLine
 10
160.0
 20
287.0
 11
160.0
 21
292.0
  0
LINE
  5
34D
100
AcDbEntity
  8
M79
  6
CONTINUOUS
370
13
 62
     7
100
AcDbLine
 10
210.0
 20
287.0
 11
210.0
 21
297.0
  0
LINE
  5
34E
100
AcDbEntity
  8
M79
  6
CONTINUOUS
370
13
 62
     7
100
AcDbLine
 10
260.0
 20
287.0
 11
260.0
 21
292.0
  0
LINE
  5
34F
100
AcDbEntity
  8
M79
  6
CONTINUOUS
370
13
 62
     7
100
AcDbLine
 10
310.0
 20
287.0
 11
310.0
 21
292.0
  0
LINE
  5
350
100
AcDbEntity
  8
M79
  6
CONTINUOUS
370
13
 62
     7
100
AcDbLine
 10
360.0
 20
287.0
 11
360.0
 21
292.0
  0
LINE
  5
351
100
AcDbEntity
  8
M79
  6
CONTINUOUS
370
13
 62
     7
100
AcDbLine
 10
360.0
 20
5.0
 11
360.0
 21
10.0
  0
LINE
  5
352
100
AcDbEntity
  8
M79
  6
CONTINUOUS
370
25
 62
     7
100
AcDbLine
 10
25.0
 20
274.0
 11
72.699997
 21
274.0
  0
LINE
  5
353
100
AcDbEntity
  8
M79
  6
CONTINUOUS
370
13
 62
     7
100
AcDbLine
 10
170.0
 20
4.999999
 11
170.0
 21
9.999999
  0
LINE
  5
354
100
AcDbEntity
  8
M79
  6
CONTINUOUS
370
13
 62
     7
100
AcDbLine
 10
180.0
 20
4.999999
 11
180.0
 21
9.999999
  0
LINE
  5
355
100
AcDbEntity
  8
M79
  6
CONTINUOUS
370
13
 62
     7
100
AcDbLine
 10
190.0
 20
4.999999
 11
190.0
 21
9.999999
  0
LINE
  5
356
100
AcDbEntity
  8
M79
  6
CONTINUOUS
370
13
 62
     7
100
AcDbLine
 10
200.0
 20
4.999999
 11
200.0
 21
9.999999
  0
LINE
  5
357
100
AcDbEntity
  8
M79
  6
CONTINUOUS
370
13
 62
     7
100
AcDbLine
 10
210.0
 20
4.999999
 11
210.0
 21
9.999999
  0
LINE
  5
358
100
AcDbEntity
  8
M79
  6
CONTINUOUS
370
13
 62
     7
100
AcDbLine
 10
220.0
 20
4.999999
 11
220.0
 21
9.999999
  0
LINE
  5
359
100
AcDbEntity
  8
M79
  6
CONTINUOUS
370
13
 62
     7
100
AcDbLine
 10
230.0
 20
4.999999
 11
230.0
 21
9.999999
  0
LINE
  5
35A
100
AcDbEntity
  8
M79
  6
CONTINUOUS
370
13
 62
     7
100
AcDbLine
 10
240.0
 20
4.999999
 11
240.0
 21
9.999999
  0
LINE
  5
35B
100
AcDbEntity
  8
M79
  6
CONTINUOUS
370
13
 62
     7
100
AcDbLine
 10
250.0
 20
4.999999
 11
250.0
 21
9.999999
  0
LINE
  5
35C
100
AcDbEntity
  8
M79
  6
CONTINUOUS
370
13
 62
     7
100
AcDbLine
 10
162.0
 20
7.499207
 11
162.0
 21
9.999999
  0
LINE
  5
35D
100
AcDbEntity
  8
M79
  6
CONTINUOUS
370
13
 62
     7
100
AcDbLine
 10
164.0
 20
7.498415
 11
164.0
 21
9.999999
  0
LINE
  5
35E
100
AcDbEntity
  8
M79
  6
CONTINUOUS
370
13
 62
     7
100
AcDbLine
 10
166.0
 20
7.497622
 11
166.0
 21
9.999999
  0
LINE
  5
35F
100
AcDbEntity
  8
M79
  6
CONTINUOUS
370
13
 62
     7
100
AcDbLine
 10
168.0
 20
7.496831
 11
168.0
 21
9.999999
  0
LINE
  5
360
100
AcDbEntity
  8
M79
  6
CONTINUOUS
370
13
 62
     7
100
AcDbLine
 10
175.0
 20
7.494059
 11
175.0
 21
9.999998
  0
LINE
  5
361
100
AcDbEntity
  8
M79
  6
CONTINUOUS
370
13
 62
     7
100
AcDbLine
 10
185.0
 20
7.494058
 11
185.0
 21
9.999997
  0
LINE
  5
362
100
AcDbEntity
  8
M79
  6
CONTINUOUS
370
13
 62
     7
100
AcDbLine
 10
195.0
 20
7.494058
 11
195.0
 21
9.999997
  0
LINE
  5
363
100
AcDbEntity
  8
M79
  6
CONTINUOUS
370
13
 62
     7
100
AcDbLine
 10
205.0
 20
7.494058
 11
205.0
 21
9.999997
  0
LINE
  5
364
100
AcDbEntity
  8
M79
  6
CONTINUOUS
370
13
 62
     7
100
AcDbLine
 10
215.0
 20
7.494058
 11
215.0
 21
9.999997
  0
LINE
  5
365
100
AcDbEntity
  8
M79
  6
CONTINUOUS
370
13
 62
     7
100
AcDbLine
 10
225.0
 20
7.494058
 11
225.0
 21
9.999997
  0
LINE
  5
366
100
AcDbEntity
  8
M79
  6
CONTINUOUS
370
13
 62
     7
100
AcDbLine
 10
235.0
 20
7.494058
 11
235.0
 21
9.999997
  0
LINE
  5
367
100
AcDbEntity
  8
M79
  6
CONTINUOUS
370
13
 62
     7
100
AcDbLine
 10
245.0
 20
7.494058
 11
245.0
 21
9.999997
  0
LINE
  5
368
100
AcDbEntity
  8
M79
  6
CONTINUOUS
370
13
 62
     7
100
AcDbLine
 10
255.0
 20
7.494058
 11
255.0
 21
9.999997
  0
LINE
  5
369
100
AcDbEntity
  8
M79
  6
CONTINUOUS
370
13
 62
     7
100
AcDbLine
 10
160.0
 20
5.0
 11
260.0
 21
4.960396
  0
TEXT
  5
36A
100
AcDbEntity
  8
M79
 62
     7
100
AcDbText
 10
18.5
 20
270.0
 40
4.0
  1
Ａ
 41
1.25
  7
STANDARD
100
AcDbText
  0
TEXT
  5
36B
100
AcDbEntity
  8
M79
 62
     7
100
AcDbText
 10
18.5
 20
220.0
 40
4.0
  1
Ｂ
 41
1.25
  7
STANDARD
100
AcDbText
  0
TEXT
  5
36C
100
AcDbEntity
  8
M79
 62
     7
100
AcDbText
 10
18.5
 20
170.0
 40
4.0
  1
Ｃ
 41
1.25
  7
STANDARD
100
AcDbText
  0
TEXT
  5
36D
100
AcDbEntity
  8
M79
 62
     7
100
AcDbText
 10
18.5
 20
120.0
 40
4.0
  1
Ｄ
 41
1.25
  7
STANDARD
100
AcDbText
  0
TEXT
  5
36E
100
AcDbEntity
  8
M79
 62
     7
100
AcDbText
 10
18.5
 20
70.0
 40
4.0
  1
Ｅ
 41
1.25
  7
STANDARD
100
AcDbText
  0
TEXT
  5
36F
100
AcDbEntity
  8
M79
 62
     7
100
AcDbText
 10
18.5
 20
30.0
 40
4.0
  1
Ｆ
 41
1.25
  7
STANDARD
100
AcDbText
  0
TEXT
  5
370
100
AcDbEntity
  8
M79
 62
     7
100
AcDbText
 10
411.5
 20
270.0
 40
4.0
  1
Ａ
 41
1.25
  7
STANDARD
100
AcDbText
  0
TEXT
  5
371
100
AcDbEntity
  8
M79
 62
     7
100
AcDbText
 10
411.5
 20
220.0
 40
4.0
  1
Ｂ
 41
1.25
  7
STANDARD
100
AcDbText
  0
TEXT
  5
372
100
AcDbEntity
  8
M79
 62
     7
100
AcDbText
 10
411.5
 20
170.0
 40
4.0
  1
Ｃ
 41
1.25
  7
STANDARD
100
AcDbText
  0
TEXT
  5
373
100
AcDbEntity
  8
M79
 62
     7
100
AcDbText
 10
411.5
 20
120.0
 40
4.0
  1
Ｄ
 41
1.25
  7
STANDARD
100
AcDbText
  0
TEXT
  5
374
100
AcDbEntity
  8
M79
 62
     7
100
AcDbText
 10
411.5
 20
70.0
 40
4.0
  1
Ｅ
 41
1.25
  7
STANDARD
100
AcDbText
  0
TEXT
  5
375
100
AcDbEntity
  8
M79
 62
     7
100
AcDbText
 10
39.5
 20
4.0
 40
4.0
  1
１
 41
1.25
  7
STANDARD
100
AcDbText
  0
TEXT
  5
376
100
AcDbEntity
  8
M79
 62
     7
100
AcDbText
 10
81.5
 20
4.0
 40
4.0
  1
２
 41
1.25
  7
STANDARD
100
AcDbText
  0
TEXT
  5
377
100
AcDbEntity
  8
M79
 62
     7
100
AcDbText
 10
131.5
 20
4.0
 40
4.0
  1
３
 41
1.25
  7
STANDARD
100
AcDbText
  0
TEXT
  5
378
100
AcDbEntity
  8
M79
 62
     7
100
AcDbText
 10
281.5
 20
4.0
 40
4.0
  1
６
 41
1.25
  7
STANDARD
100
AcDbText
  0
TEXT
  5
379
100
AcDbEntity
  8
M79
 62
     7
100
AcDbText
 10
331.5
 20
4.0
 40
4.0
  1
７
 41
1.25
  7
STANDARD
100
AcDbText
  0
TEXT
  5
37A
100
AcDbEntity
  8
M79
 62
     7
100
AcDbText
 10
182.420563
 20
0.724621
 40
4.0
  1
４
 41
1.25
  7
STANDARD
100
AcDbText
  0
TEXT
  5
37B
100
AcDbEntity
  8
M79
 62
     7
100
AcDbText
 10
232.487747
 20
0.621103
 40
4.0
  1
５
 41
1.25
  7
STANDARD
100
AcDbText
  0
TEXT
  5
37C
100
AcDbEntity
  8
M79
 62
     7
100
AcDbText
 10
39.5
 20
289.0
 40
4.0
  1
１
 41
1.25
  7
STANDARD
100
AcDbText
  0
TEXT
  5
37D
100
AcDbEntity
  8
M79
 62
     7
100
AcDbText
 10
81.5
 20
289.0
 40
4.0
  1
２
 41
1.25
  7
STANDARD
100
AcDbText
  0
TEXT
  5
37E
100
AcDbEntity
  8
M79
 62
     7
100
AcDbText
 10
131.5
 20
289.0
 40
4.0
  1
３
 41
1.25
  7
STANDARD
100
AcDbText
  0
TEXT
  5
37F
100
AcDbEntity
  8
M79
 62
     7
100
AcDbText
 10
281.5
 20
289.0
 40
4.0
  1
６
 41
1.25
  7
STANDARD
100
AcDbText
  0
TEXT
  5
380
100
AcDbEntity
  8
M79
 62
     7
100
AcDbText
 10
331.5
 20
289.0
 40
4.0
  1
７
 41
1.25
  7
STANDARD
100
AcDbText
  0
TEXT
  5
381
100
AcDbEntity
  8
M79
 62
     7
100
AcDbText
 10
381.5
 20
289.0
 40
4.0
  1
８
 41
1.25
  7
STANDARD
100
AcDbText
  0
TEXT
  5
382
100
AcDbEntity
  8
M79
 62
     7
100
AcDbText
 10
182.420563
 20
288.924561
 40
4.0
  1
４
 41
1.25
  7
STANDARD
100
AcDbText
  0
TEXT
  5
383
100
AcDbEntity
  8
M79
 62
     7
100
AcDbText
 10
232.487747
 20
289.020996
 40
4.0
  1
５
 41
1.25
  7
STANDARD
100
AcDbText
  0
TEXT
  5
384
100
AcDbEntity
  8
M79
 62
     7
100
AcDbText
 10
158.373433
 20
2.218226
 40
2.0
  1
０
 41
1.666667
  7
STANDARD
100
AcDbText
  0
TEXT
  5
385
100
AcDbEntity
  8
M79
 62
     7
100
AcDbText
 10
256.725179
 20
2.129498
 40
2.0
  1
１００
 41
0.916667
  7
STANDARD
100
AcDbText
  0
LINE
  5
386
100
AcDbEntity
  8
M79
  6
CONTINUOUS
370
25
 62
     7
100
AcDbLine
 10
72.699997
 20
287.0
 11
72.699997
 21
274.0
  0
LINE
  5
387
100
AcDbEntity
  8
M79
  6
CONTINUOUS
370
25
 62
     7
100
AcDbLine
 10
25.0
 20
10.0
 11
410.0
 21
10.0
  0
TEXT
  5
388
100
AcDbEntity
  8
M79
 62
     7
100
AcDbText
 10
241.246246
 20
27.470188
 40
2.5
  1
ＤＷＮ．
 41
0.5
  7
STANDARD
100
AcDbText
  0
TEXT
  5
389
100
AcDbEntity
  8
M79
 62
     7
100
AcDbText
 10
240.968414
 20
19.642731
 40
2.5
  1
ＣＨＫＤ．
 41
0.5
  7
STANDARD
100
AcDbText
  0
TEXT
  5
38A
100
AcDbEntity
  8
M79
 62
     7
100
AcDbText
 10
240.867371
 20
11.237426
 40
2.5
  1
ＡＰＰＤ．
 41
0.5
  7
STANDARD
100
AcDbText
  0
TEXT
  5
38B
100
AcDbEntity
  8
M79
 62
     7
100
AcDbText
 10
334.966502
 20
34.001312
 40
3.0
  1
ＴＩＴＬＥ
 41
0.555556
  7
STANDARD
100
AcDbText
  0
TEXT
  5
38C
100
AcDbEntity
  8
M79
 62
     7
100
AcDbText
 10
342.164164
 20
22.153
 40
3.0
  1
ＴＯＣＨＩＧＩ　ＤＷＧ．　Ｎｏ．
 41
0.555556
  7
STANDARD
100
AcDbText
  0
TEXT
  5
38D
100
AcDbEntity
  8
M79
 62
     7
100
AcDbText
 10
319.896495
 20
34.001312
 40
3.0
  1
ＳＣＡＬＥ
 41
0.555556
  7
STANDARD
100
AcDbText
  0
TEXT
  5
38E
100
AcDbEntity
  8
M79
 62
     7
100
AcDbText
 10
411.5
 20
30.0
 40
4.0
  1
Ｆ
 41
1.25
  7
STANDARD
100
AcDbText
  0
LINE
  5
38F
100
AcDbEntity
  8
M79
  6
CONTINUOUS
370
25
 62
     7
100
AcDbLine
 10
240.0
 20
37.5
 11
410.0
 21
37.5
  0
LINE
  5
390
100
AcDbEntity
  8
M79
  6
CONTINUOUS
370
13
 62
     7
100
AcDbLine
 10
298.0
 20
26.0
 11
410.0
 21
26.0
  0
LINE
  5
391
100
AcDbEntity
  8
M79
  6
CONTINUOUS
370
13
 62
     7
100
AcDbLine
 10
334.0
 20
37.5
 11
334.0
 21
26.0
  0
LINE
  5
392
100
AcDbEntity
  8
M79
  6
CONTINUOUS
370
13
 62
     7
100
AcDbLine
 10
316.0
 20
37.5
 11
316.0
 21
26.0
  0
LINE
  5
393
100
AcDbEntity
  8
M79
  6
CONTINUOUS
370
13
 62
     7
100
AcDbLine
 10
395.0
 20
26.0
 11
395.0
 21
10.0
  0
LINE
  5
394
100
AcDbEntity
  8
M79
  6
CONTINUOUS
370
13
 62
     7
100
AcDbLine
 10
298.0
 20
37.5
 11
298.0
 21
10.0
  0
LINE
  5
395
100
AcDbEntity
  8
M79
  6
CONTINUOUS
370
13
 62
     7
100
AcDbLine
 10
240.0
 20
26.5
 11
298.0
 21
26.5
  0
LINE
  5
396
100
AcDbEntity
  8
M79
  6
CONTINUOUS
370
13
 62
     7
100
AcDbLine
 10
248.0
 20
32.0
 11
248.0
 21
10.0
  0
LINE
  5
397
100
AcDbEntity
  8
M79
  6
CONTINUOUS
370
13
 62
     7
100
AcDbLine
 10
240.0
 20
32.0
 11
298.0
 21
32.0
  0
LINE
  5
398
100
AcDbEntity
  8
M79
  6
CONTINUOUS
370
25
 62
     7
100
AcDbLine
 10
240.0
 20
37.5
 11
240.0
 21
10.0
  0
LINE
  5
399
100
AcDbEntity
  8
M79
  6
CONTINUOUS
370
13
 62
     7
100
AcDbLine
 10
273.0
 20
37.5
 11
273.0
 21
10.0
  0
LINE
  5
39A
100
AcDbEntity
  8
M79
  6
CONTINUOUS
370
13
 62
     7
100
AcDbLine
 10
248.0
 20
21.0
 11
298.0
 21
21.0
  0
LINE
  5
39B
100
AcDbEntity
  8
M79
  6
CONTINUOUS
370
13
 62
     7
100
AcDbLine
 10
240.0
 20
15.5
 11
298.0
 21
15.5
  0
LINE
  5
39C
100
AcDbEntity
  8
M79
  6
CONTINUOUS
370
13
 62
     7
100
AcDbLine
 10
341.3
 20
26.0
 11
341.3
 21
10.0
  0
TEXT
  5
39D
100
AcDbEntity
  8
M79
 62
     7
100
AcDbText
 10
398.43067
 20
23.014603
 40
2.8
  1
ＲＥＧＤ．
 41
0.535714
  7
STANDARD
100
AcDbText
  0
TEXT
  5
39E
100
AcDbEntity
  8
M79
 62
     7
100
AcDbText
 10
281.166667
 20
33.0
 40
3.0
  1
ＤＡＴＥ
 41
0.555556
  7
STANDARD
100
AcDbText
  0
TEXT
  5
39F
100
AcDbEntity
  8
M79
 62
     7
100
AcDbText
 10
248.166667
 20
33.0
 40
3.0
  1
ＳＩＧＮＡＴＵＲＥ
 41
0.555556
  7
STANDARD
100
AcDbText
  0
TEXT
  5
3A0
100
AcDbEntity
  8
M79
 62
     7
100
AcDbText
 10
299.816162
 20
34.347473
 40
2.5
  1
ＰＲＯＪＥＣＴＩＯＮ
 41
0.5
  7
STANDARD
100
AcDbText
  0
LINE
  5
3A1
100
AcDbEntity
  8
M79
  6
CONTINUOUS
370
25
 62
     7
100
AcDbLine
 10
400.990983
 20
32.8
 11
401.3
 21
32.8
  0
ARC
  5
3A2
100
AcDbEntity
  8
M79
  6
CONTINUOUS
370
25
 62
     7
100
AcDbCircle
 10
400.990983
 20
34.0
 40
0.2
100
AcDbArc
 50
90.0
 51
138.189685
  0
ARC
  5
3A3
100
AcDbEntity
  8
M79
  6
CONTINUOUS
370
25
 62
     7
100
AcDbCircle
 10
401.55
 20
33.5
 40
0.95
100
AcDbArc
 50
138.189685
 51
221.810315
  0
ELLIPSE
  5
3A4
100
AcDbEntity
  8
M79
  6
CONTINUOUS
370
25
 62
     7
100
AcDbEllipse
 10
404.0
 20
33.5
 11
5.0
 21
0.0
210
0.0
220
0.0
230
1.0
 40
0.6
 41
0.0
 42
6.283185307179586
  0
LINE
  5
3A5
100
AcDbEntity
  8
M79
  6
CONTINUOUS
370
25
 62
     7
100
AcDbLine
 10
402.1
 20
35.2
 11
402.1
 21
34.894427
  0
LINE
  5
3A6
100
AcDbEntity
  8
M79
  6
CONTINUOUS
370
25
 62
     7
100
AcDbLine
 10
406.8
 20
34.2
 11
406.8
 21
32.8
  0
LINE
  5
3A7
100
AcDbEntity
  8
M79
  6
CONTINUOUS
370
25
 62
     7
100
AcDbLine
 10
405.8
 20
34.2
 11
406.0
 21
34.2
  0
LINE
  5
3A8
100
AcDbEntity
  8
M79
  6
CONTINUOUS
370
25
 62
     7
100
AcDbLine
 10
407.209017
 20
32.8
 11
406.8
 21
32.8
  0
LINE
  5
3A9
100
AcDbEntity
  8
M79
  6
CONTINUOUS
370
25
 62
     7
100
AcDbLine
 10
406.8
 20
34.2
 11
407.209017
 21
34.2
  0
LINE
  5
3AA
100
AcDbEntity
  8
M79
  6
CONTINUOUS
370
25
 62
     7
100
AcDbLine
 10
406.0
 20
32.8
 11
405.8
 21
32.8
  0
LINE
  5
3AB
100
AcDbEntity
  8
M79
  6
CONTINUOUS
370
25
 62
     7
100
AcDbLine
 10
403.189003
 20
31.8
 11
403.458233
 21
32.5
  0
LINE
  5
3AC
100
AcDbEntity
  8
M79
  6
CONTINUOUS
370
25
 62
     7
100
AcDbLine
 10
404.810997
 20
31.8
 11
404.541767
 21
32.5
  0
LINE
  5
3AD
100
AcDbEntity
  8
M79
  6
CONTINUOUS
370
25
 62
     7
100
AcDbLine
 10
403.727464
 20
33.2
 11
404.0
 21
34.108593
  0
LINE
  5
3AE
100
AcDbEntity
  8
M79
  6
CONTINUOUS
370
25
 62
     7
100
AcDbLine
 10
403.727464
 20
33.2
 11
404.272536
 21
33.2
  0
LINE
  5
3AF
100
AcDbEntity
  8
M79
  6
CONTINUOUS
370
25
 62
     7
100
AcDbLine
 10
404.272536
 20
33.2
 11
404.0
 21
34.108593
  0
LINE
  5
3B0
100
AcDbEntity
  8
M79
  6
CONTINUOUS
370
25
 62
     7
100
AcDbLine
 10
403.458233
 20
32.5
 11
404.541767
 21
32.5
  0
LINE
  5
3B1
100
AcDbEntity
  8
M79
  6
CONTINUOUS
370
25
 62
     7
100
AcDbLine
 10
406.0
 20
34.2
 11
406.0
 21
32.8
  0
LINE
  5
3B2
100
AcDbEntity
  8
M79
  6
CONTINUOUS
370
25
 62
     7
100
AcDbLine
 10
400.990983
 20
35.2
 11
401.3
 21
35.2
  0
LINE
  5
3B3
100
AcDbEntity
  8
M79
  6
CONTINUOUS
370
25
 62
     7
100
AcDbLine
 10
402.1
 20
35.2
 11
402.5
 21
35.2
  0
LINE
  5
3B4
100
AcDbEntity
  8
M79
  6
CONTINUOUS
370
25
 62
     7
100
AcDbLine
 10
402.5
 20
35.2
 11
402.5
 21
33.9
  0
LINE
  5
3B5
100
AcDbEntity
  8
M79
  6
CONTINUOUS
370
25
 62
     7
100
AcDbLine
 10
400.990983
 20
31.8
 11
401.3
 21
31.8
  0
LINE
  5
3B6
100
AcDbEntity
  8
M79
  6
CONTINUOUS
370
25
 62
     7
100
AcDbLine
 10
403.65
 20
35.2
 11
404.35
 21
35.2
  0
LINE
  5
3B7
100
AcDbEntity
  8
M79
  6
CONTINUOUS
370
25
 62
     7
100
AcDbLine
 10
402.317588
 20
31.8
 11
403.189003
 21
31.8
  0
LINE
  5
3B8
100
AcDbEntity
  8
M79
  6
CONTINUOUS
370
25
 62
     7
100
AcDbLine
 10
404.810997
 20
31.8
 11
405.682412
 21
31.8
  0
LINE
  5
3B9
100
AcDbEntity
  8
M79
  6
CONTINUOUS
370
25
 62
     7
100
AcDbLine
 10
407.009017
 20
31.8
 11
405.8
 21
31.8
  0
LINE
  5
3BA
100
AcDbEntity
  8
M79
  6
CONTINUOUS
370
25
 62
     7
100
AcDbLine
 10
405.8
 20
35.2
 11
407.009017
 21
35.2
  0
LINE
  5
3BB
100
AcDbEntity
  8
M79
  6
CONTINUOUS
370
25
 62
     7
100
AcDbLine
 10
405.8
 20
35.2
 11
405.8
 21
34.2
  0
LINE
  5
3BC
100
AcDbEntity
  8
M79
  6
CONTINUOUS
370
25
 62
     7
100
AcDbLine
 10
405.8
 20
32.8
 11
405.8
 21
31.8
  0
LINE
  5
3BD
100
AcDbEntity
  8
M79
  6
CONTINUOUS
370
25
 62
     7
100
AcDbLine
 10
403.65
 20
35.2
 11
402.317588
 21
31.8
  0
LINE
  5
3BE
100
AcDbEntity
  8
M79
  6
CONTINUOUS
370
25
 62
     7
100
AcDbLine
 10
404.35
 20
35.2
 11
405.682412
 21
31.8
  0
LINE
  5
3BF
100
AcDbEntity
  8
M79
  6
CONTINUOUS
370
25
 62
     7
100
AcDbLine
 10
402.5
 20
33.9
 11
401.602667
 21
33.9
  0
LINE
  5
3C0
100
AcDbEntity
  8
M79
  6
CONTINUOUS
370
25
 62
     7
100
AcDbLine
 10
402.495826
 20
33.1
 11
401.602667
 21
33.1
  0
LINE
  5
3C1
100
AcDbEntity
  8
M79
  6
CONTINUOUS
370
25
 62
     7
100
AcDbLine
 10
401.820551
 20
30.8
 11
406.179449
 21
30.8
  0
LINE
  5
3C2
100
AcDbEntity
  8
M79
  6
CONTINUOUS
370
25
 62
     7
100
AcDbLine
 10
401.0
 20
31.1
 11
407.0
 21
31.1
  0
LINE
  5
3C3
100
AcDbEntity
  8
M79
  6
CONTINUOUS
370
25
 62
     7
100
AcDbLine
 10
400.429286
 20
31.4
 11
407.570714
 21
31.4
  0
LINE
  5
3C4
100
AcDbEntity
  8
M79
  6
CONTINUOUS
370
25
 62
     7
100
AcDbLine
 10
400.0
 20
31.7
 11
408.0
 21
31.7
  0
LINE
  5
3C5
100
AcDbEntity
  8
M79
  6
CONTINUOUS
370
25
 62
     7
100
AcDbLine
 10
399.669873
 20
32.0
 11
400.327658
 21
32.0
  0
LINE
  5
3C6
100
AcDbEntity
  8
M79
  6
CONTINUOUS
370
25
 62
     7
100
AcDbLine
 10
401.963325
 20
32.0
 11
402.395965
 21
32.0
  0
LINE
  5
3C7
100
AcDbEntity
  8
M79
  6
CONTINUOUS
370
25
 62
     7
100
AcDbLine
 10
403.265926
 20
32.0
 11
404.734074
 21
32.0
  0
LINE
  5
3C8
100
AcDbEntity
  8
M79
  6
CONTINUOUS
370
25
 62
     7
100
AcDbLine
 10
405.604035
 20
32.0
 11
405.8
 21
32.0
  0
LINE
  5
3C9
100
AcDbEntity
  8
M79
  6
CONTINUOUS
370
25
 62
     7
100
AcDbLine
 10
407.672342
 20
32.0
 11
408.330127
 21
32.0
  0
LINE
  5
3CA
100
AcDbEntity
  8
M79
  6
CONTINUOUS
370
25
 62
     7
100
AcDbLine
 10
399.417424
 20
32.3
 11
400.012957
 21
32.3
  0
LINE
  5
3CB
100
AcDbEntity
  8
M79
  6
CONTINUOUS
370
25
 62
     7
100
AcDbLine
 10
402.274679
 20
32.3
 11
402.513531
 21
32.3
  0
LINE
  5
3CC
100
AcDbEntity
  8
M79
  6
CONTINUOUS
370
25
 62
     7
100
AcDbLine
 10
403.38131
 20
32.3
 11
404.61869
 21
32.3
  0
LINE
  5
3CD
100
AcDbEntity
  8
M79
  6
CONTINUOUS
370
25
 62
     7
100
AcDbLine
 10
405.486469
 20
32.3
 11
405.8
 21
32.3
  0
LINE
  5
3CE
100
AcDbEntity
  8
M79
  6
CONTINUOUS
370
25
 62
     7
100
AcDbLine
 10
407.987043
 20
32.3
 11
408.582576
 21
32.3
  0
LINE
  5
3CF
100
AcDbEntity
  8
M79
  6
CONTINUOUS
370
25
 62
     7
100
AcDbLine
 10
399.230304
 20
32.6
 11
399.820116
 21
32.6
  0
LINE
  5
3D0
100
AcDbEntity
  8
M79
  6
CONTINUOUS
370
25
 62
     7
100
AcDbLine
 10
402.431371
 20
32.6
 11
402.631097
 21
32.6
  0
LINE
  5
3D1
100
AcDbEntity
  8
M79
  6
CONTINUOUS
370
25
 62
     7
100
AcDbLine
 10
405.368903
 20
32.6
 11
405.8
 21
32.6
  0
LINE
  5
3D2
100
AcDbEntity
  8
M79
  6
CONTINUOUS
370
25
 62
     7
100
AcDbLine
 10
408.179884
 20
32.6
 11
408.769696
 21
32.6
  0
LINE
  5
3D3
100
AcDbEntity
  8
M79
  6
CONTINUOUS
370
25
 62
     7
100
AcDbLine
 10
399.101021
 20
32.9
 11
399.694602
 21
32.9
  0
LINE
  5
3D4
100
AcDbEntity
  8
M79
  6
CONTINUOUS
370
25
 62
     7
100
AcDbLine
 10
400.813454
 20
32.9
 11
401.477529
 21
32.9
  0
LINE
  5
3D5
100
AcDbEntity
  8
M79
  6
CONTINUOUS
370
25
 62
     7
100
AcDbLine
 10
402.495826
 20
32.9
 11
402.748663
 21
32.9
  0
LINE
  5
3D6
100
AcDbEntity
  8
M79
  6
CONTINUOUS
370
25
 62
     7
100
AcDbLine
 10
405.251337
 20
32.9
 11
406.0
 21
32.9
  0
ARC
  5
3D7
100
AcDbEntity
  8
M79
  6
CONTINUOUS
370
25
 62
     7
100
AcDbCircle
 10
400.990983
 20
33.0
 40
0.2
100
AcDbArc
 50
221.810315
 51
270.0
  0
LINE
  5
3D8
100
AcDbEntity
  8
M79
  6
CONTINUOUS
370
25
 62
     7
100
AcDbLine
 10
400.990983
 20
34.2
 11
401.3
 21
34.2
  0
ARC
  5
3D9
100
AcDbEntity
  8
M79
  6
CONTINUOUS
370
25
 62
     7
100
AcDbCircle
 10
406.65
 20
33.5
 40
0.95
100
AcDbArc
 50
318.189685
 51
401.810315
  0
LINE
  5
3DA
100
AcDbEntity
  8
M79
  6
CONTINUOUS
370
25
 62
     7
100
AcDbLine
 10
406.8
 20
34.0
 11
407.457775
 21
34.0
  0
ARC
  5
3DB
100
AcDbEntity
  8
M79
  6
CONTINUOUS
370
25
 62
     7
100
AcDbCircle
 10
407.209017
 20
34.0
 40
0.2
100
AcDbArc
 50
41.810315
 51
90.0
  0
ARC
  5
3DC
100
AcDbEntity
  8
M79
  6
CONTINUOUS
370
25
 62
     7
100
AcDbCircle
 10
407.209017
 20
33.0
 40
0.2
100
AcDbArc
 50
270.0
 51
318.189685
  0
ARC
  5
3DD
100
AcDbEntity
  8
M79
  6
CONTINUOUS
370
25
 62
     7
100
AcDbCircle
 10
401.3
 20
34.0
 40
1.2
100
AcDbArc
 50
48.189685
 51
90.0
  0
ARC
  5
3DE
100
AcDbEntity
  8
M79
  6
CONTINUOUS
370
25
 62
     7
100
AcDbCircle
 10
400.990983
 20
34.0
 40
1.2
100
AcDbArc
 50
90.0
 51
138.189685
  0
ARC
  5
3DF
100
AcDbEntity
  8
M79
  6
CONTINUOUS
370
25
 62
     7
100
AcDbCircle
 10
401.55
 20
33.5
 40
1.95
100
AcDbArc
 50
138.189685
 51
221.810315
  0
ARC
  5
3E0
100
AcDbEntity
  8
M79
  6
CONTINUOUS
370
25
 62
     7
100
AcDbCircle
 10
400.990983
 20
33.0
 40
1.2
100
AcDbArc
 50
221.810315
 51
270.0
  0
ARC
  5
3E1
100
AcDbEntity
  8
M79
  6
CONTINUOUS
370
25
 62
     7
100
AcDbCircle
 10
401.3
 20
33.0
 40
1.2
100
AcDbArc
 50
270.0
 51
364.780192
  0
ARC
  5
3E2
100
AcDbEntity
  8
M79
  6
CONTINUOUS
370
25
 62
     7
100
AcDbCircle
 10
406.45
 20
33.5
 40
1.95
100
AcDbArc
 50
318.189685
 51
401.810315
  0
ARC
  5
3E3
100
AcDbEntity
  8
M79
  6
CONTINUOUS
370
25
 62
     7
100
AcDbCircle
 10
407.009017
 20
33.0
 40
1.2
100
AcDbArc
 50
270.0
 51
318.189685
  0
ARC
  5
3E4
100
AcDbEntity
  8
M79
  6
CONTINUOUS
370
25
 62
     7
100
AcDbCircle
 10
407.009017
 20
34.0
 40
1.2
100
AcDbArc
 50
41.810315
 51
90.0
  0
ARC
  5
3E5
100
AcDbEntity
  8
M79
  6
CONTINUOUS
370
25
 62
     7
100
AcDbCircle
 10
401.3
 20
34.0
 40
0.2
100
AcDbArc
 50
41.810315
 51
90.0
  0
ARC
  5
3E6
100
AcDbEntity
  8
M79
  6
CONTINUOUS
370
25
 62
     7
100
AcDbCircle
 10
400.740983
 20
33.5
 40
0.95
100
AcDbArc
 50
318.189685
 51
335.098938
  0
ARC
  5
3E7
100
AcDbEntity
  8
M79
  6
CONTINUOUS
370
25
 62
     7
100
AcDbCircle
 10
401.3
 20
33.0
 40
0.2
100
AcDbArc
 50
270.0
 51
318.189685
  0
ARC
  5
3E8
100
AcDbEntity
  8
M79
  6
CONTINUOUS
370
25
 62
     7
100
AcDbCircle
 10
400.740983
 20
33.5
 40
0.95
100
AcDbArc
 50
24.901062
 51
41.810315
  0
LINE
  5
3E9
100
AcDbEntity
  8
M79
  6
CONTINUOUS
370
25
 62
     7
100
AcDbLine
 10
408.305398
 20
32.9
 11
408.898979
 21
32.9
  0
LINE
  5
3EA
100
AcDbEntity
  8
M79
  6
CONTINUOUS
370
25
 62
     7
100
AcDbLine
 10
399.025063
 20
33.2
 11
399.623215
 21
33.2
  0
LINE
  5
3EB
100
AcDbEntity
  8
M79
  6
CONTINUOUS
370
25
 62
     7
100
AcDbLine
 10
400.648612
 20
33.2
 11
402.866228
 21
33.2
  0
LINE
  5
3EC
100
AcDbEntity
  8
M79
  6
CONTINUOUS
370
25
 62
     7
100
AcDbLine
 10
405.133772
 20
33.2
 11
406.0
 21
33.2
  0
LINE
  5
3ED
100
AcDbEntity
  8
M79
  6
CONTINUOUS
370
25
 62
     7
100
AcDbLine
 10
408.376785
 20
33.2
 11
408.974937
 21
33.2
  0
LINE
  5
3EE
100
AcDbEntity
  8
M79
  6
CONTINUOUS
370
25
 62
     7
100
AcDbLine
 10
399.0
 20
33.5
 11
399.6
 21
33.5
  0
LINE
  5
3EF
100
AcDbEntity
  8
M79
  6
CONTINUOUS
370
25
 62
     7
100
AcDbLine
 10
400.6
 20
33.5
 11
402.983794
 21
33.5
  0
LINE
  5
3F0
100
AcDbEntity
  8
M79
  6
CONTINUOUS
370
25
 62
     7
100
AcDbLine
 10
405.016206
 20
33.5
 11
406.0
 21
33.5
  0
LINE
  5
3F1
100
AcDbEntity
  8
M79
  6
CONTINUOUS
370
25
 62
     7
100
AcDbLine
 10
408.4
 20
33.5
 11
409.0
 21
33.5
  0
LINE
  5
3F2
100
AcDbEntity
  8
M79
  6
CONTINUOUS
370
25
 62
     7
100
AcDbLine
 10
399.025063
 20
33.8
 11
399.623215
 21
33.8
  0
LINE
  5
3F3
100
AcDbEntity
  8
M79
  6
CONTINUOUS
370
25
 62
     7
100
AcDbLine
 10
400.648612
 20
33.8
 11
403.10136
 21
33.8
  0
LINE
  5
3F4
100
AcDbEntity
  8
M79
  6
CONTINUOUS
370
25
 62
     7
100
AcDbLine
 10
404.89864
 20
33.8
 11
406.0
 21
33.8
  0
LINE
  5
3F5
100
AcDbEntity
  8
M79
  6
CONTINUOUS
370
25
 62
     7
100
AcDbLine
 10
408.376785
 20
33.8
 11
408.974937
 21
33.8
  0
LINE
  5
3F6
100
AcDbEntity
  8
M79
  6
CONTINUOUS
370
25
 62
     7
100
AcDbLine
 10
399.101021
 20
34.1
 11
399.694602
 21
34.1
  0
LINE
  5
3F7
100
AcDbEntity
  8
M79
  6
CONTINUOUS
370
25
 62
     7
100
AcDbLine
 10
400.813454
 20
34.1
 11
401.477529
 21
34.1
  0
LINE
  5
3F8
100
AcDbEntity
  8
M79
  6
CONTINUOUS
370
25
 62
     7
100
AcDbLine
 10
402.5
 20
34.1
 11
403.218926
 21
34.1
  0
LINE
  5
3F9
100
AcDbEntity
  8
M79
  6
CONTINUOUS
370
25
 62
     7
100
AcDbLine
 10
404.781074
 20
34.1
 11
406.0
 21
34.1
  0
LINE
  5
3FA
100
AcDbEntity
  8
M79
  6
CONTINUOUS
370
25
 62
     7
100
AcDbLine
 10
408.305398
 20
34.1
 11
408.898979
 21
34.1
  0
LINE
  5
3FB
100
AcDbEntity
  8
M79
  6
CONTINUOUS
370
25
 62
     7
100
AcDbLine
 10
399.230304
 20
34.4
 11
399.820116
 21
34.4
  0
LINE
  5
3FC
100
AcDbEntity
  8
M79
  6
CONTINUOUS
370
25
 62
     7
100
AcDbLine
 10
402.5
 20
34.4
 11
403.336491
 21
34.4
  0
LINE
  5
3FD
100
AcDbEntity
  8
M79
  6
CONTINUOUS
370
25
 62
     7
100
AcDbLine
 10
404.663509
 20
34.4
 11
405.8
 21
34.4
  0
LINE
  5
3FE
100
AcDbEntity
  8
M79
  6
CONTINUOUS
370
25
 62
     7
100
AcDbLine
 10
408.179884
 20
34.4
 11
408.769696
 21
34.4
  0
LINE
  5
3FF
100
AcDbEntity
  8
M79
  6
CONTINUOUS
370
25
 62
     7
100
AcDbLine
 10
399.417424
 20
34.7
 11
400.012957
 21
34.7
  0
LINE
  5
400
100
AcDbEntity
  8
M79
  6
CONTINUOUS
370
25
 62
     7
100
AcDbLine
 10
402.5
 20
34.7
 11
403.454057
 21
34.7
  0
LINE
  5
401
100
AcDbEntity
  8
M79
  6
CONTINUOUS
370
25
 62
     7
100
AcDbLine
 10
404.545943
 20
34.7
 11
405.8
 21
34.7
  0
LINE
  5
402
100
AcDbEntity
  8
M79
  6
CONTINUOUS
370
25
 62
     7
100
AcDbLine
 10
407.987043
 20
34.7
 11
408.582576
 21
34.7
  0
LINE
  5
403
100
AcDbEntity
  8
M79
  6
CONTINUOUS
370
25
 62
     7
100
AcDbLine
 10
399.669873
 20
35.0
 11
400.327658
 21
35.0
  0
LINE
  5
404
100
AcDbEntity
  8
M79
  6
CONTINUOUS
370
25
 62
     7
100
AcDbLine
 10
401.963325
 20
35.0
 11
402.1
 21
35.0
  0
LINE
  5
405
100
AcDbEntity
  8
M79
  6
CONTINUOUS
370
25
 62
     7
100
AcDbLine
 10
402.5
 20
35.0
 11
403.571623
 21
35.0
  0
LINE
  5
406
100
AcDbEntity
  8
M79
  6
CONTINUOUS
370
25
 62
     7
100
AcDbLine
 10
404.428377
 20
35.0
 11
405.8
 21
35.0
  0
LINE
  5
407
100
AcDbEntity
  8
M79
  6
CONTINUOUS
370
25
 62
     7
100
AcDbLine
 10
407.672342
 20
35.0
 11
408.330127
 21
35.0
  0
LINE
  5
408
100
AcDbEntity
  8
M79
  6
CONTINUOUS
370
25
 62
     7
100
AcDbLine
 10
400.0
 20
35.3
 11
408.0
 21
35.3
  0
LINE
  5
409
100
AcDbEntity
  8
M79
  6
CONTINUOUS
370
25
 62
     7
100
AcDbLine
 10
400.429286
 20
35.6
 11
407.570714
 21
35.6
  0
LINE
  5
40A
100
AcDbEntity
  8
M79
  6
CONTINUOUS
370
25
 62
     7
100
AcDbLine
 10
401.0
 20
35.9
 11
407.0
 21
35.9
  0
LINE
  5
40B
100
AcDbEntity
  8
M79
  6
CONTINUOUS
370
25
 62
     7
100
AcDbLine
 10
401.820551
 20
36.2
 11
406.179449
 21
36.2
  0
LINE
  5
40C
100
AcDbEntity
  8
M79
  6
CONTINUOUS
370
25
 62
     7
100
AcDbLine
 10
403.81745
 20
33.5
 11
404.18255
 21
33.5
  0
LINE
  5
40D
100
AcDbEntity
  8
M79
  6
CONTINUOUS
370
25
 62
     7
100
AcDbLine
 10
403.907436
 20
33.8
 11
404.092564
 21
33.8
  0
LINE
  5
40E
100
AcDbEntity
  8
M79
  6
CONTINUOUS
370
25
 62
     7
100
AcDbLine
 10
403.997422
 20
34.1
 11
404.002578
 21
34.1
  0
LINE
  5
40F
100
AcDbEntity
  8
M79
  6
CONTINUOUS
370
25
 62
     7
100
AcDbLine
 10
406.8
 20
33.1
 11
407.511684
 21
33.1
  0
LINE
  5
410
100
AcDbEntity
  8
M79
  6
CONTINUOUS
370
25
 62
     7
100
AcDbLine
 10
406.8
 20
33.4
 11
407.594722
 21
33.4
  0
LINE
  5
411
100
AcDbEntity
  8
M79
  6
CONTINUOUS
370
25
 62
     7
100
AcDbLine
 10
406.8
 20
33.7
 11
407.578709
 21
33.7
  0
LINE
  5
412
100
AcDbEntity
  8
M79
  6
CONTINUOUS
370
25
 62
     7
100
AcDbLine
 10
308.078572
 20
28.751659
 11
313.342243
 21
27.501659
  0
LINE
  5
413
100
AcDbEntity
  8
M79
  6
CONTINUOUS
370
25
 62
     7
100
AcDbLine
 10
308.078572
 20
31.251659
 11
308.078572
 21
28.751659
  0
CIRCLE
  5
414
100
AcDbEntity
  8
M79
  6
CONTINUOUS
370
25
 62
     7
100
AcDbCircle
 10
302.493366
 20
30.001659
 40
1.25
  0
LINE
  5
415
100
AcDbEntity
  8
M79
  6
CONTINUOUS
370
25
 62
     7
100
AcDbLine
 10
313.342243
 20
32.501659
 11
313.342243
 21
27.501659
  0
LINE
  5
416
100
AcDbEntity
  8
M79
  6
DASHDOT
370
13
 62
     7
100
AcDbLine
 10
299.09737
 20
30.001659
 11
315.354218
 21
30.001659
  0
LINE
  5
417
100
AcDbEntity
  8
M79
  6
DASHDOT
370
13
 62
     7
100
AcDbLine
 10
302.493366
 20
26.945247
 11
302.493366
 21
33.62408
  0
LINE
  5
418
100
AcDbEntity
  8
M79
  6
CONTINUOUS
370
25
 62
     7
100
AcDbLine
 10
308.078572
 20
31.251659
 11
313.342243
 21
32.501659
  0
CIRCLE
  5
419
100
AcDbEntity
  8
M79
  6
CONTINUOUS
370
25
 62
     7
100
AcDbCircle
 10
302.493366
 20
30.001659
 40
2.5
  0
TEXT
  5
41A
100
AcDbEntity
  8
M79
 62
     7
100
AcDbText
 10
298.321647
 20
17.727871
 40
4.2
  1
Ｈ
 41
0.515873
  7
STANDARD
100
AcDbText
  0
TEXT
  5
41B
100
AcDbEntity
  8
M79
 62
     7
100
AcDbText
 10
322.679892
 20
14.006361
 40
2.9
  1
ｐ
 41
0.603448
  7
STANDARD
100
AcDbText
  0
TEXT
  5
41C
100
AcDbEntity
  8
M79
 62
     7
100
AcDbText
 10
321.279813
 20
13.906359
 40
2.9
  1
ａ
 41
0.603448
  7
STANDARD
100
AcDbText
  0
TEXT
  5
41D
100
AcDbEntity
  8
M79
 62
     7
100
AcDbText
 10
319.879855
 20
13.906359
 40
2.9
  1
Ｊ
 41
0.603448
  7
STANDARD
100
AcDbText
  0
TEXT
  5
41E
100
AcDbEntity
  8
M79
 62
     7
100
AcDbText
 10
316.779853
 20
13.906361
 40
2.9
  1
ｏ
 41
0.603448
  7
STANDARD
100
AcDbText
  0
TEXT
  5
41F
100
AcDbEntity
  8
M79
 62
     7
100
AcDbText
 10
315.379773
 20
13.906361
 40
2.9
  1
ｙ
 41
0.603448
  7
STANDARD
100
AcDbText
  0
TEXT
  5
420
100
AcDbEntity
  8
M79
 62
     7
100
AcDbText
 10
313.87987
 20
13.906361
 40
2.9
  1
ｋ
 41
0.603448
  7
STANDARD
100
AcDbText
  0
TEXT
  5
421
100
AcDbEntity
  8
M79
 62
     7
100
AcDbText
 10
312.379815
 20
13.906361
 40
2.9
  1
ｏ
 41
0.603448
  7
STANDARD
100
AcDbText
  0
TEXT
  5
422
100
AcDbEntity
  8
M79
 62
     7
100
AcDbText
 10
310.979857
 20
13.906361
 40
2.9
  1
Ｔ
 41
0.603448
  7
STANDARD
100
AcDbText
  0
TEXT
  5
423
100
AcDbEntity
  8
M79
 62
     7
100
AcDbText
 10
324.279801
 20
13.906359
 40
2.9
  1
ａ
 41
0.603448
  7
STANDARD
100
AcDbText
  0
TEXT
  5
424
100
AcDbEntity
  8
M79
 62
     7
100
AcDbText
 10
325.739766
 20
13.906359
 40
2.9
  1
ｎ
 41
0.603448
  7
STANDARD
100
AcDbText
  0
TEXT
  5
425
100
AcDbEntity
  8
M79
 62
     7
100
AcDbText
 10
299.621647
 20
17.727871
 40
4.2
  1
ｉ
 41
0.515873
  7
STANDARD
100
AcDbText
  0
TEXT
  5
426
100
AcDbEntity
  8
M79
 62
     7
100
AcDbText
 10
302.221647
 20
17.727871
 40
4.2
  1
ａ
 41
0.515873
  7
STANDARD
100
AcDbText
  0
TEXT
  5
427
100
AcDbEntity
  8
M79
 62
     7
100
AcDbText
 10
300.921647
 20
17.727871
 40
4.2
  1
ｔ
 41
0.515873
  7
STANDARD
100
AcDbText
  0
TEXT
  5
428
100
AcDbEntity
  8
M79
 62
     7
100
AcDbText
 10
303.521647
 20
17.727871
 40
4.2
  1
ｃ
 41
0.515873
  7
STANDARD
100
AcDbText
  0
TEXT
  5
429
100
AcDbEntity
  8
M79
 62
     7
100
AcDbText
 10
306.121647
 20
17.727871
 40
4.2
  1
ｉ
 41
0.515873
  7
STANDARD
100
AcDbText
  0
TEXT
  5
42A
100
AcDbEntity
  8
M79
 62
     7
100
AcDbText
 10
304.821647
 20
17.727871
 40
4.2
  1
ｈ
 41
0.515873
  7
STANDARD
100
AcDbText
  0
TEXT
  5
42B
100
AcDbEntity
  8
M79
 62
     7
100
AcDbText
 10
308.421647
 20
17.727871
 40
4.2
  1
Ｇ
 41
0.515873
  7
STANDARD
100
AcDbText
  0
TEXT
  5
42C
100
AcDbEntity
  8
M79
 62
     7
100
AcDbText
 10
309.721647
 20
17.727871
 40
4.2
  1
ｌ
 41
0.515873
  7
STANDARD
100
AcDbText
  0
TEXT
  5
42D
100
AcDbEntity
  8
M79
 62
     7
100
AcDbText
 10
311.021647
 20
17.727871
 40
4.2
  1
ｏ
 41
0.515873
  7
STANDARD
100
AcDbText
  0
TEXT
  5
42E
100
AcDbEntity
  8
M79
 62
     7
100
AcDbText
 10
312.321647
 20
17.727871
 40
4.2
  1
ｂ
 41
0.515873
  7
STANDARD
100
AcDbText
  0
TEXT
  5
42F
100
AcDbEntity
  8
M79
 62
     7
100
AcDbText
 10
313.621647
 20
17.727871
 40
4.2
  1
ａ
 41
0.515873
  7
STANDARD
100
AcDbText
  0
TEXT
  5
430
100
AcDbEntity
  8
M79
 62
     7
100
AcDbText
 10
314.921648
 20
17.727871
 40
4.2
  1
ｌ
 41
0.515873
  7
STANDARD
100
AcDbText
  0
TEXT
  5
431
100
AcDbEntity
  8
M79
 62
     7
100
AcDbText
 10
317.221647
 20
17.727871
 40
4.2
  1
Ｌ
 41
0.515873
  7
STANDARD
100
AcDbText
  0
TEXT
  5
432
100
AcDbEntity
  8
M79
 62
     7
100
AcDbText
 10
318.521646
 20
17.727871
 40
4.2
  1
ｉ
 41
0.515873
  7
STANDARD
100
AcDbText
  0
TEXT
  5
433
100
AcDbEntity
  8
M79
 62
     7
100
AcDbText
 10
319.821647
 20
17.727871
 40
4.2
  1
ｆ
 41
0.515873
  7
STANDARD
100
AcDbText
  0
TEXT
  5
434
100
AcDbEntity
  8
M79
 62
     7
100
AcDbText
 10
321.121646
 20
17.727871
 40
4.2
  1
ｅ
 41
0.515873
  7
STANDARD
100
AcDbText
  0
TEXT
  5
435
100
AcDbEntity
  8
M79
 62
     7
100
AcDbText
 10
323.421646
 20
17.727871
 40
4.2
  1
Ｓ
 41
0.515873
  7
STANDARD
100
AcDbText
  0
TEXT
  5
436
100
AcDbEntity
  8
M79
 62
     7
100
AcDbText
 10
324.721645
 20
17.727871
 40
4.2
  1
ｏ
 41
0.515873
  7
STANDARD
100
AcDbText
  0
TEXT
  5
437
100
AcDbEntity
  8
M79
 62
     7
100
AcDbText
 10
326.021646
 20
17.727871
 40
4.2
  1
ｌ
 41
0.515873
  7
STANDARD
100
AcDbText
  0
TEXT
  5
438
100
AcDbEntity
  8
M79
 62
     7
100
AcDbText
 10
327.321645
 20
17.727871
 40
4.2
  1
ｕ
 41
0.515873
  7
STANDARD
100
AcDbText
  0
TEXT
  5
439
100
AcDbEntity
  8
M79
 62
     7
100
AcDbText
 10
328.621646
 20
17.727871
 40
4.2
  1
ｔ
 41
0.515873
  7
STANDARD
100
AcDbText
  0
TEXT
  5
43A
100
AcDbEntity
  8
M79
 62
     7
100
AcDbText
 10
329.921646
 20
17.727871
 40
4.2
  1
ｉ
 41
0.515873
  7
STANDARD
100
AcDbText
  0
TEXT
  5
43B
100
AcDbEntity
  8
M79
 62
     7
100
AcDbText
 10
331.221645
 20
17.727871
 40
4.2
  1
ｏ
 41
0.515873
  7
STANDARD
100
AcDbText
  0
TEXT
  5
43C
100
AcDbEntity
  8
M79
 62
     7
100
AcDbText
 10
332.521644
 20
17.727871
 40
4.2
  1
ｎ
 41
0.515873
  7
STANDARD
100
AcDbText
  0
TEXT
  5
43D
100
AcDbEntity
  8
M79
 62
     7
100
AcDbText
 10
333.821643
 20
17.727871
 40
4.2
  1
ｓ
 41
0.515873
  7
STANDARD
100
AcDbText
  0
TEXT
  5
43E
100
AcDbEntity
  8
M79
 62
     7
100
AcDbText
 10
335.121643
 20
17.727871
 40
4.2
  1
，
 41
0.515873
  7
STANDARD
100
AcDbText
  0
TEXT
  5
43F
100
AcDbEntity
  8
M79
 62
     7
100
AcDbText
 10
336.121643
 20
17.727871
 40
4.2
  1
Ｉ
 41
0.515873
  7
STANDARD
100
AcDbText
  0
TEXT
  5
440
100
AcDbEntity
  8
M79
 62
     7
100
AcDbText
 10
337.421642
 20
17.727871
 40
4.2
  1
ｎ
 41
0.515873
  7
STANDARD
100
AcDbText
  0
TEXT
  5
441
100
AcDbEntity
  8
M79
 62
     7
100
AcDbText
 10
340.02164
 20
17.727871
 40
4.2
  1
．
 41
0.515873
  7
STANDARD
100
AcDbText
  0
TEXT
  5
442
100
AcDbEntity
  8
M79
 62
     7
100
AcDbText
 10
338.721641
 20
17.727871
 40
4.2
  1
ｃ
 41
0.515873
  7
STANDARD
100
AcDbText
  0
ENDSEC
  0
SECTION
  2
OBJECTS
  0
DICTIONARY
  5
C
100
AcDbDictionary
  3
ACAD_GROUP
350
D
  3
ACAD_MLINESTYLE
350
E
  0
DICTIONARY
  5
D
102
{ACAD_REACTORS
330
C
102
}
100
AcDbDictionary
  0
DICTIONARY
  5
E
102
{ACAD_REACTORS
330
C
102
}
100
AcDbDictionary
  3
STANDARD
350
13
  0
DICTIONARY
  5
4D
330
4C
100
AcDbDictionary
280
     1
281
     1
  3
ACAD_DIMASSOC
360
4E
  0
DIMASSOC
  5
4E
102
{ACAD_REACTORS
330
4D
102
}
330
4D
100
AcDbDimAssoc
330
4C
 90
        1
 70
     0
 71
     0
  1
AcDbOsnapPointRef
 72
     10
331
4F
 73
     2
 91
        0
 40
0.355588
 10
157.731384
 20
166.864319
 30
0.000000
 75
     0
  0
DICTIONARY
  5
51
330
50
100
AcDbDictionary
280
     1
281
     1
  3
ACAD_DIMASSOC
360
52
  0
DIMASSOC
  5
52
102
{ACAD_REACTORS
330
51
102
}
330
51
100
AcDbDimAssoc
330
50
 90
        1
 70
     0
 71
     0
  1
AcDbOsnapPointRef
 72
     10
331
53
 73
     2
 91
        0
 40
0.641237
 10
157.731384
 20
183.809738
 30
0.000000
 75
     0
  0
DICTIONARY
  5
56
330
55
100
AcDbDictionary
280
     1
281
     1
  3
ACAD_DIMASSOC
360
57
  0
DIMASSOC
  5
57
102
{ACAD_REACTORS
330
56
102
}
330
56
100
AcDbDimAssoc
330
55
 90
        1
 70
     0
 71
     0
  1
AcDbOsnapPointRef
 72
     10
331
58
 73
     2
 91
        0
 40
6.201409
 10
166.830261
 20
241.944550
 30
0.000000
 75
     0
  0
DICTIONARY
  5
5C
330
5B
100
AcDbDictionary
280
     1
281
     1
  3
ACAD_DIMASSOC
360
5D
  0
DIMASSOC
  5
5D
102
{ACAD_REACTORS
330
5C
102
}
330
5C
100
AcDbDimAssoc
330
5B
 90
        1
 70
     0
 71
     0
  1
AcDbOsnapPointRef
 72
     10
331
5E
 73
     2
 91
        0
 40
0.641237
 10
157.731384
 20
203.919739
 30
0.000000
 75
     0
  0
MLINESTYLE
  5
13
102
{ACAD_REACTORS
330
E
102
}
100
AcDbMlineStyle
  2
STANDARD
 70
     0
  3

 62
     0
 51
90.0
 52
90.0
 71
     2
 49
0.5
 62
   256
  6
BYLAYER
 49
-0.5
 62
   256
  6
BYLAYER
  0
ENDSEC
  0
EOF
