  0
SECTION
  2
HEADER
  9
$ACADVER
  1
AC1015
  9
$INSBASE
 10
0.000000
 20
0.000000
 30
0.0
  9
$VIEWCTR
 10
7.531722
 20
4.5
  9
$VIEWSIZE
 40
9.0
  9
$SNAPMODE
 70
     0
  9
$SNAPUNIT
 10
1.0
 20
1.0
  9
$SNAPBASE
 10
0.0
 20
0.0
  9
$SNAPANG
 50
0.0
  9
$SNAPSTYLE
 70
     0
  9
$SNAPISOPAIR
 70
     0
  9
$GRIDMODE
 70
     0
  9
$GRIDUNIT
 10
0.0
 20
0.0
  9
$ORTHOMODE
 70
     0
  9
$REGENMODE
 70
     1
  9
$FILLMODE
 70
     1
  9
$QTEXTMODE
 70
     0
  9
$DRAGMODE
 70
     2
  9
$LTSCALE
  40
     1.000000
  9
$OSMODE
 70
     0
  9
$ATTMODE
 70
     1
  9
$TEXTSIZE
 40
0.2
  9
$TRACEWID
 40
0.05
  9
$TEXTSTYLE
  7
STANDARD
  9
$CELTYPE
  6
BYLAYER
  9
$CECOLOR
 62
   256
  9
$DIMSCALE
 40
1.0
  9
$DIMASZ
 40
0.18
  9
$DIMEXO
 40
0.0625
  9
$DIMDLI
 40
0.38
  9
$DIMRND
 40
0.0
  9
$DIMDLE
 40
0.0
  9
$DIMEXE
 40
0.18
  9
$DIMTP
 40
0.0
  9
$DIMTM
 40
0.0
  9
$DIMTXT
 40
0.18
  9
$DIMCEN
 40
0.09
  9
$DIMTSZ
 40
0.0
  9
$DIMADEC
 70
     0
  9
$DIMALTRND
 40
0.000000
  9
$DIMAZIN
 70
     0
  9
$DIMDSEP
 70
    46
  9
$DIMATFIT
 70
     3
  9
$DIMFRAC
 70
     0
  9
$DIMLDRBLK
  1

  9
$DIMLUNIT
 70
     2
  9
$DIMLWD
 70
   13
  9
$DIMLWE
 70
   13
  9
$DIMTMOVE
 70
     0
  9
$CELWEIGHT
370
    25
  9
$LWDISPLAY
290
    1
  9
$EXTNAMES
290
    1
  9
$DIMTOL
 70
     0
  9
$DIMLIM
 70
     0
  9
$DIMTIH
 70
     1
  9
$DIMTOH
 70
     1
  9
$DIMSE1
 70
     0
  9
$DIMSE2
 70
     0
  9
$DIMTAD
 70
     0
  9
$DIMZIN
 70
     0
  9
$DIMBLK
  1

  9
$LUNITS
 70
     2
  9
$LUPREC
 70
     4
  9
$AXISMODE
 70
     0
  9
$AXISUNIT
 10
0.0
 20
0.0
  9
$SKETCHINC
 40
0.1
  9
$FILLETRAD
 40
0.0
  9
$AUNITS
 70
     0
  9
$AUPREC
 70
     0
  9
$MENU
  1
ACAD
  9
$ELEVATION
 40
0.0
  9
$THICKNESS
 40
0.0
  9
$VIEWDIR
 10
0.0
 20
0.0
 30
1.0
  9
$LIMCHECK
 70
     0
  9
$BLIPMODE
 70
     1
  9
$CHAMFERA
 40
0.0
  9
$CHAMFERB
 40
0.0
  9
$FASTZOOM
 70
     1
  9
$SKPOLY
 70
     0
  9
$TDCREATE
 40
0000000.0000000000
  9
$TDUPDATE
 40
0000000.0000000000
  9
$TDINDWG
 40
0.0000000000
  9
$TDUSRTIMER
 40
0.0000000000
  9
$USRTIMER
 70
     1
  9
$ANGBASE
 50
0.0
  9
$ANGDIR
 70
     0
  9
$PDMODE
 70
     0
  9
$PDSIZE
 40
0.0
  9
$PLINEWID
 40
0.0
  9
$COORDS
 70
     0
  9
$USERI1
 70
     0
  9
$USERI2
 70
     0
  9
$USERI3
 70
     0
  9
$USERI4
 70
     0
  9
$USERI5
 70
     0
  9
$USERR1
 40
0.0
  9
$USERR2
 40
0.0
  9
$USERR3
 40
0.0
  9
$USERR4
 40
0.0
  9
$USERR5
 40
0.0
  9
$CLAYER
  8
M0
  9
$EXTMIN
 10
0.0
 20
0.0
  9
$EXTMAX
 10
420.0
 20
297.0
  9
$LIMMIN
 10
0.0
 20
0.0
  9
$LIMMAX
 10
420.0
 20
297.0
  9
$HANDSEED
  5
48E
  0
ENDSEC
  0
SECTION
  2
CLASSES
  0
CLASS
  1
DIMASSOC
  2
AcDbDimAssoc
  3
"AcDbDimAssoc|Product Desc:     AcDim ARX App For Dimension|Company:          Autodesk, Inc.|WEB Address:      www.autodesk.com"
 90
        0
280
     0
281
     0
  0
ENDSEC
  0
SECTION
  2
TABLES
  0
TABLE
  2
VPORT
  5
8
100
AcDbSymbolTable
 70
     2
  0
VPORT
  5
14
100
AcDbSymbolTableRecord
100
AcDbViewportTableRecord
  2
*ACTIVE
 70
     0
 10
0.0
 20
0.0
 11
1.0
 21
1.0
 12
484.0
 22
297.0
 13
0.0
 23
0.0
 14
1.0
 24
1.0
 15
0.0
 25
0.0
 16
0.0
 26
0.0
 36
1.0
 17
0.0
 27
0.0
 37
0.0
 40
594.0
 41
2.0
 42
50.0
 43
0.0
 44
0.0
 50
0.0
 51
0.0
 71
     0
 72
   100
 73
     1
 74
     1
 75
     0
 76
     0
 77
     0
 78
     0
  0
ENDTAB
  0
TABLE
  2
LTYPE
  5
5
100
AcDbSymbolTable
 70
     5
  0
LTYPE
  5
15
100
AcDbSymbolTableRecord
100
AcDbLinetypeTableRecord
  2
BYBLOCK
 70
     0
  3

 72
    65
 73
     0
 40
0.0
  0
LTYPE
  5
16
100
AcDbSymbolTableRecord
100
AcDbLinetypeTableRecord
  2
BYLAYER
 70
     0
  3

 72
    65
 73
     0
 40
0.0
  0
LTYPE
  5
17
100
AcDbSymbolTableRecord
100
AcDbLinetypeTableRecord
  2
CONTINUOUS
 70
    64
  3
Solid line
 72
    65
 73
     0
 40
0.0
  0
LTYPE
  5
18
100
AcDbSymbolTableRecord
100
AcDbLinetypeTableRecord
  2
DASHED
 70
    64
  3
__ __ __ __ __ __ __ __ __ __ __ __ __ __ __ __
 72
    65
 73
     2
 40
0.75
 49
0.5
 74
     0
 49
-0.25
 74
     0
  0
LTYPE
  5
19
100
AcDbSymbolTableRecord
100
AcDbLinetypeTableRecord
  2
DASHDOT
 70
    64
  3
__ . __ . __ . __ . __ . __ . __ . __ . __ . __
 72
    65
 73
     4
 40
1.0
 49
0.5
 74
     0
 49
-0.25
 74
     0
 49
0.0
 74
     0
 49
-0.25
 74
     0
  0
LTYPE
  5
1A
100
AcDbSymbolTableRecord
100
AcDbLinetypeTableRecord
  2
DIVIDE
 70
    64
  3
____ . . ____ . . ____ . . ____ . . ____ . . __
 72
    65
 73
     6
 40
1.25
 49
0.5
 74
     0
 49
-0.25
 74
     0
 49
0.0
 74
     0
 49
-0.25
 74
     0
 49
0.0
 74
     0
 49
-0.25
 74
     0
  0
LTYPE
  5
1B
100
AcDbSymbolTableRecord
100
AcDbLinetypeTableRecord
  2
DOT
 70
    64
  3
. . . . . . . . . . . . . . . . . . . . . . . .
 72
    65
 73
     2
 40
0.25
 49
0.0
 74
     0
 49
-0.25
 74
     0
  0
ENDTAB
  0
TABLE
  2
LAYER
  5
2
100
AcDbSymbolTable
 70
   102
  0
LAYER
  5
F
100
AcDbSymbolTableRecord
100
AcDbLayerTableRecord
  2
0
 70
     0
 62
     7
  6
CONTINUOUS
370
     -3
390
F
  0
LAYER
  5
1C
100
AcDbSymbolTableRecord
100
AcDbLayerTableRecord
  2
M0
 70
     0
 62
     3
  6
CONTINUOUS
370
     -3
390
F
  0
LAYER
  5
1D
100
AcDbSymbolTableRecord
100
AcDbLayerTableRecord
  2
M69
 70
     0
 62
     7
  6
CONTINUOUS
370
     -3
390
F
  0
LAYER
  5
1E
100
AcDbSymbolTableRecord
100
AcDbLayerTableRecord
  2
M71
 70
     0
 62
     7
  6
CONTINUOUS
370
     -3
390
F
  0
LAYER
  5
1F
100
AcDbSymbolTableRecord
100
AcDbLayerTableRecord
  2
M73
 70
     0
 62
     7
  6
CONTINUOUS
370
     -3
390
F
  0
LAYER
  5
20
100
AcDbSymbolTableRecord
100
AcDbLayerTableRecord
  2
M74
 70
     0
 62
     7
  6
CONTINUOUS
370
     -3
390
F
  0
LAYER
  5
21
100
AcDbSymbolTableRecord
100
AcDbLayerTableRecord
  2
M75
 70
     0
 62
     7
  6
CONTINUOUS
370
     -3
390
F
  0
LAYER
  5
22
100
AcDbSymbolTableRecord
100
AcDbLayerTableRecord
  2
M79
 70
     0
 62
     7
  6
CONTINUOUS
370
     -3
390
F
  0
LAYER
  5
23
100
AcDbSymbolTableRecord
100
AcDbLayerTableRecord
  2
DD0
 70
     0
 62
     7
  6
CONTINUOUS
370
     -3
390
F
  0
ENDTAB
  0
TABLE
  2
STYLE
  5
3
100
AcDbSymbolTable
 70
     2
  0
STYLE
  5
10
100
AcDbSymbolTableRecord
100
AcDbTextStyleTableRecord
  2
STANDARD
 70
     0
 40
0.0
 41
1.0
 50
0.0
 71
     0
 42
0.2
  3
txt
  4
BIGFONT
  0
ENDTAB
  0
TABLE
  2
VIEW
  5
6
100
AcDbSymbolTable
 70
     0
  0
ENDTAB
  0
TABLE
  2
UCS
  5
7
100
AcDbSymbolTable
 70
     0
  0
ENDTAB
  0
TABLE
  2
APPID
  5
9
100
AcDbSymbolTable
 70
     1
  0
APPID
  5
11
100
AcDbSymbolTableRecord
100
AcDbRegAppTableRecord
  2
ACAD
 70
     0
  0
ENDTAB
  0
TABLE
  2
DIMSTYLE
  5
A
100
AcDbSymbolTable
 70
     2
100
AcDbDimStyleTable
 71
     1
  0
DIMSTYLE
105
5B
100
AcDbSymbolTableRecord
100
AcDbDimStyleTableRecord
  2
STANDARD
 70
     0
  3

  4

  5

  6
_OPEN
  7
_OPEN
 40
1.0
 41
3.0
 42
0.0
 43
8.0
 44
1.5
 45
0.0
 46
0.0
 47
0.0
 48
0.0
140
3.2
141
0.09
142
0.0
143
0.03937
144
1.0
145
0.0
146
1.0
147
1.0
148
0.000000
 71
     0
 72
     0
 73
     1
 74
     1
 75
     0
 76
     0
 77
     3
 78
     8
170
     0
171
     2
172
     0
173
     1
174
     0
175
     0
176
     0
177
     0
178
     0
270
     2
271
     2
272
     4
273
     2
274
     2
340
10
275
     0
278
    46
280
     0
281
     0
282
     0
283
     1
284
     0
285
     0
286
     0
287
     3
288
     0
371
   13
372
   13
  0
DIMSTYLE
105
5C
100
AcDbSymbolTableRecord
100
AcDbDimStyleTableRecord
  2
LEADSTYL
 70
     0
  3

  4

  5

  6
_OPEN
  7
_OPEN
 40
1.0
 41
3.0
 42
0.0625
 43
0.38
 44
0.18
 45
0.0
 46
0.0
 47
0.0
 48
0.0
140
3.2
141
0.09
142
0.0
143
25.4
144
1.0
145
0.0
146
1.0
147
1.0
 71
     0
 72
     0
 73
     1
 74
     1
 75
     0
 76
     0
 77
     0
 78
     0
170
     0
171
     2
172
     0
173
     1
174
     0
175
     0
176
     0
177
     0
178
     0
270
     2
271
     4
272
     4
273
     2
274
     2
340
10
275
     0
280
     0
281
     0
282
     0
283
     1
284
     0
285
     0
286
     0
287
     3
288
     0
  0
ENDTAB
  0
TABLE
  2
BLOCK_RECORD
  5
1
100
AcDbSymbolTable
 70
     6
  0
BLOCK_RECORD
  5
24
100
AcDbSymbolTableRecord
100
AcDbBlockTableRecord
  2
*MODEL_SPACE
  0
BLOCK_RECORD
  5
27
100
AcDbSymbolTableRecord
100
AcDbBlockTableRecord
  2
*PAPER_SPACE
  0
BLOCK_RECORD
  5
2A
100
AcDbSymbolTableRecord
100
AcDbBlockTableRecord
  2
_NONE
  0
BLOCK_RECORD
  5
2E
100
AcDbSymbolTableRecord
100
AcDbBlockTableRecord
  2
_OPEN
  0
BLOCK_RECORD
  5
34
100
AcDbSymbolTableRecord
100
AcDbBlockTableRecord
  2
_CLOSED
  0
BLOCK_RECORD
  5
3B
100
AcDbSymbolTableRecord
100
AcDbBlockTableRecord
  2
_ORIGIN
  0
BLOCK_RECORD
  5
40
100
AcDbSymbolTableRecord
100
AcDbBlockTableRecord
  2
_DOT
  0
BLOCK_RECORD
  5
48
100
AcDbSymbolTableRecord
100
AcDbBlockTableRecord
  2
_OBLIQUE
  0
ENDTAB
  0
ENDSEC
  0
SECTION
  2
BLOCKS
  0
BLOCK
  5
25
100
AcDbEntity
  8
0
100
AcDbBlockBegin
  2
*MODEL_SPACE
 70
     0
 10
0.0
 20
0.0
 30
0.0
  3
*MODEL_SPACE
  1

  0
ENDBLK
  5
26
100
AcDbEntity
  8
0
100
AcDbBlockEnd
  0
BLOCK
  5
28
100
AcDbEntity
 67
     1
  8
0
100
AcDbBlockBegin
  2
*PAPER_SPACE
 70
     0
 10
0.0
 20
0.0
 30
0.0
  3
*PAPER_SPACE
  1

  0
ENDBLK
  5
29
100
AcDbEntity
 67
     1
  8
0
100
AcDbBlockEnd
  0
BLOCK
  5
2B
100
AcDbEntity
  8
0
100
AcDbBlockBegin
  2
_NONE
 70
     0
 10
0.0
 20
0.0
  0
CIRCLE
  5
2C
100
AcDbEntity
  8
0
 62
     0
370
13
100
AcDbCircle
 10
0.0
 20
0.0
 40
0.25
  0
ENDBLK
  5
2D
100
AcDbEntity
  8
0
100
AcDbBlockEnd
  0
BLOCK
  5
2F
100
AcDbEntity
  8
0
100
AcDbBlockBegin
  2
_OPEN
 70
     0
 10
0.0
 20
0.0
  0
LINE
  5
30
100
AcDbEntity
  8
0
 62
     0
370
13
100
AcDbLine
 10
-0.965926
 20
0.258819
 11
0.0
 21
0.0
  0
LINE
  5
31
100
AcDbEntity
  8
0
 62
     0
370
13
100
AcDbLine
 10
0.0
 20
0.0
 11
-0.965926
 21
-0.258819
  0
LINE
  5
32
100
AcDbEntity
  8
0
 62
     0
370
13
100
AcDbLine
 10
0.0
 20
0.0
 11
-1.0
 21
0.0
  0
ENDBLK
  5
33
100
AcDbEntity
  8
0
100
AcDbBlockEnd
  0
BLOCK
  5
35
100
AcDbEntity
  8
0
100
AcDbBlockBegin
  2
_CLOSED
 70
     0
 10
0.0
 20
0.0
  0
LINE
  5
36
100
AcDbEntity
  8
0
 62
     0
370
13
100
AcDbLine
 10
-0.965926
 20
0.258819
 11
0.0
 21
0.0
  0
LINE
  5
37
100
AcDbEntity
  8
0
 62
     0
370
13
100
AcDbLine
 10
0.0
 20
0.0
 11
-0.965926
 21
-0.258819
  0
LINE
  5
38
100
AcDbEntity
  8
0
 62
     0
370
13
100
AcDbLine
 10
-0.965926
 20
0.258819
 11
-0.965926
 21
-0.258819
  0
LINE
  5
39
100
AcDbEntity
  8
0
 62
     0
370
13
100
AcDbLine
 10
0.0
 20
0.0
 11
-1.0
 21
0.0
  0
ENDBLK
  5
3A
100
AcDbEntity
  8
0
100
AcDbBlockEnd
  0
BLOCK
  5
3C
100
AcDbEntity
  8
0
100
AcDbBlockBegin
  2
_ORIGIN
 70
     0
 10
0.0
 20
0.0
  0
CIRCLE
  5
3D
100
AcDbEntity
  8
0
 62
     0
370
13
100
AcDbCircle
 10
0.0
 20
0.0
 40
0.5
  0
LINE
  5
3E
100
AcDbEntity
  8
0
 62
     0
370
13
100
AcDbLine
 10
0.0
 20
0.0
 11
-1.0
 21
0.0
  0
ENDBLK
  5
3F
100
AcDbEntity
  8
0
100
AcDbBlockEnd
  0
BLOCK
  5
41
100
AcDbEntity
  8
0
100
AcDbBlockBegin
  2
_DOT
 70
     0
 10
0.0
 20
0.0
  0
POLYLINE
  5
42
100
AcDbEntity
  8
0
 62
     0
100
AcDb2dPolyline
 66
     1
 70
     1
 40
0.5
 41
0.5
  0
VERTEX
  5
43
100
AcDbEntity
  8
0
 62
     0
100
AcDbVertex
100
AcDb2dVertex
 10
-0.25
 20
0.0
 42
1.0
  0
VERTEX
  5
44
100
AcDbEntity
  8
0
 62
     0
100
AcDbVertex
100
AcDb2dVertex
 10
0.25
 20
0.0
 42
1.0
  0
SEQEND
  5
45
100
AcDbEntity
  8
0
 62
     0
  0
LINE
  5
46
100
AcDbEntity
  8
0
 62
     0
370
13
100
AcDbLine
 10
-0.5
 20
0.0
 11
-1.0
 21
0.0
  0
ENDBLK
  5
47
100
AcDbEntity
  8
0
100
AcDbBlockEnd
  0
BLOCK
  5
49
100
AcDbEntity
  8
0
100
AcDbBlockBegin
  2
_OBLIQUE
 70
     0
 10
0.0
 20
0.0
  0
LINE
  5
4A
100
AcDbEntity
  8
0
 62
     0
370
13
100
AcDbLine
 10
-0.353553
 20
-0.353553
 11
0.353553
 21
0.353553
  0
ENDBLK
  5
4B
100
AcDbEntity
  8
0
100
AcDbBlockEnd
  0
ENDSEC
  0
SECTION
  2
ENTITIES
  0
LEADER
  5
4C
102
{ACAD_XDICTIONARY
360
4D
102
}
102
{ACAD_REACTORS
330
4E
102
}
330
1F
100
AcDbEntity
  8
DD0
100
AcDbLeader
  3
LEADSTYL
 76
     2
 10
190.472488
 20
92.620148
 10
188.744873
 20
65.139191
 77
     7
1001
ACAD
1000
DSTYLE
1002
{
1070
   341
1005
2E
1070
   372
1070
   13
1070
   371
1070
   13
1002
}
  0
LEADER
  5
50
102
{ACAD_XDICTIONARY
360
51
102
}
102
{ACAD_REACTORS
330
52
102
}
330
1F
100
AcDbEntity
  8
DD0
100
AcDbLeader
  3
LEADSTYL
 76
     2
 10
195.625473
 20
89.462669
 10
189.603714
 20
64.612946
 77
     7
1001
ACAD
1000
DSTYLE
1002
{
1070
   341
1005
2E
1070
   372
1070
   13
1070
   371
1070
   13
1002
}
  0
LEADER
  5
54
102
{ACAD_XDICTIONARY
360
55
102
}
102
{ACAD_REACTORS
330
56
102
}
330
1F
100
AcDbEntity
  8
DD0
100
AcDbLeader
  3
LEADSTYL
 76
     3
 10
201.257233
 20
86.304161
 10
190.542328
 20
64.086525
 10
127.438309
 20
64.086525
340
58
 77
     7
1001
ACAD
1000
DSTYLE
1002
{
1070
   341
1005
2E
1070
   372
1070
   13
1070
   371
1070
   13
1002
}
  0
TEXT
  5
58
100
AcDbEntity
  8
DD0
100
AcDbText
 10
131.004974
 20
65.086525
 40
3.2
  1
必ず色を合わせて接続してください
 41
0.833333
  7
STANDARD
100
AcDbText
  0
TEXT
  5
59
100
AcDbEntity
  8
DD0
100
AcDbText
 10
182.006299
 20
67.006523
 40
1.92
  1
※
 41
0.833333
  7
STANDARD
100
AcDbText
  0
TEXT
  5
5A
100
AcDbEntity
  8
DD0
100
AcDbText
 10
184.124969
 20
65.086525
 40
3.2
  1
　
 41
0.833333
  7
STANDARD
100
AcDbText
  0
TEXT
  5
5D
100
AcDbEntity
  8
M0
 62
     7
100
AcDbText
 10
342.6452
 20
28.50678
 40
4.5
  1
ＲＨＫ－Ｔ５６ＢＤ回路・配線図
 41
0.648148
  7
STANDARD
100
AcDbText
  0
LINE
  5
5E
100
AcDbEntity
  8
M0
  6
CONTINUOUS
370
13
100
AcDbLine
 10
134.8927
 20
162.115857
 11
134.8927
 21
163.371828
  0
LINE
  5
5F
100
AcDbEntity
  8
M0
  6
CONTINUOUS
370
13
100
AcDbLine
 10
131.124787
 20
160.022572
 11
131.124787
 21
161.278543
  0
LINE
  5
60
100
AcDbEntity
  8
M0
  6
CONTINUOUS
370
13
100
AcDbLine
 10
131.442125
 20
173.058279
 11
132.802761
 21
173.058279
  0
LINE
  5
61
100
AcDbEntity
  8
M0
  6
CONTINUOUS
370
13
100
AcDbLine
 10
134.8927
 20
160.022572
 11
134.8927
 21
161.278543
  0
LINE
  5
62
100
AcDbEntity
  8
M0
  6
CONTINUOUS
370
13
100
AcDbLine
 10
131.442125
 20
172.32563
 11
132.802761
 21
172.32563
  0
LINE
  5
63
100
AcDbEntity
  8
M0
  6
CONTINUOUS
370
13
100
AcDbLine
 10
131.124787
 20
157.929287
 11
131.124787
 21
159.185258
  0
LINE
  5
64
100
AcDbEntity
  8
M0
  6
CONTINUOUS
370
13
100
AcDbLine
 10
132.726044
 20
158.923597
 11
132.747083
 21
158.902559
  0
LINE
  5
65
100
AcDbEntity
  8
M0
  6
CONTINUOUS
370
13
100
AcDbLine
 10
137.718635
 20
157.091972
 11
128.822173
 21
157.091972
  0
LINE
  5
66
100
AcDbEntity
  8
M0
  6
CONTINUOUS
370
13
100
AcDbLine
 10
132.281991
 20
158.923597
 11
132.747083
 21
158.458506
  0
LINE
  5
67
100
AcDbEntity
  8
M0
  6
CONTINUOUS
370
13
100
AcDbLine
 10
131.985956
 20
158.923597
 11
132.718606
 21
158.190947
  0
LINE
  5
68
100
AcDbEntity
  8
M0
  6
CONTINUOUS
370
13
100
AcDbLine
 10
132.133974
 20
158.923597
 11
132.747083
 21
158.310488
  0
LINE
  5
69
100
AcDbEntity
  8
M0
  6
CONTINUOUS
370
13
100
AcDbLine
 10
131.124787
 20
157.929287
 11
134.8927
 21
157.929287
  0
LINE
  5
6A
100
AcDbEntity
  8
M0
  6
CONTINUOUS
370
13
100
AcDbLine
 10
131.442125
 20
172.32563
 11
131.442125
 21
173.058279
  0
LINE
  5
6B
100
AcDbEntity
  8
M0
  6
CONTINUOUS
370
13
100
AcDbLine
 10
132.802761
 20
172.32563
 11
132.802761
 21
173.058279
  0
LINE
  5
6C
100
AcDbEntity
  8
M0
  6
CONTINUOUS
370
13
100
AcDbLine
 10
131.180465
 20
176.25054
 11
134.948378
 21
176.25054
  0
LINE
  5
6D
100
AcDbEntity
  8
M0
  6
CONTINUOUS
370
13
100
AcDbLine
 10
137.718635
 20
157.091972
 11
137.718635
 21
166.305114
  0
LINE
  5
6E
100
AcDbEntity
  8
M0
  6
CONTINUOUS
370
13
100
AcDbLine
 10
133.064421
 20
172.063969
 11
133.064421
 21
173.31994
  0
LINE
  5
6F
100
AcDbEntity
  8
M0
  6
CONTINUOUS
370
13
100
AcDbLine
 10
131.180465
 20
177.506511
 11
134.948378
 21
177.506511
  0
LINE
  5
70
100
AcDbEntity
  8
M0
  6
CONTINUOUS
370
13
100
AcDbLine
 10
137.774313
 20
178.343825
 11
128.877851
 21
178.343825
  0
LINE
  5
71
100
AcDbEntity
  8
M0
  6
CONTINUOUS
370
13
100
AcDbLine
 10
128.822173
 20
157.091972
 11
137.718635
 21
157.091972
  0
LINE
  5
72
100
AcDbEntity
  8
M0
  6
CONTINUOUS
370
13
100
AcDbLine
 10
131.124787
 20
162.115857
 11
134.8927
 21
162.115857
  0
LINE
  5
73
100
AcDbEntity
  8
M0
  6
CONTINUOUS
370
13
100
AcDbLine
 10
131.180465
 20
175.413225
 11
134.948378
 21
175.413225
  0
LINE
  5
74
100
AcDbEntity
  8
M0
  6
CONTINUOUS
370
13
100
AcDbLine
 10
131.124787
 20
159.185258
 11
134.8927
 21
159.185258
  0
LINE
  5
75
100
AcDbEntity
  8
M0
  6
CONTINUOUS
370
13
100
AcDbLine
 10
131.124787
 20
161.278543
 11
134.8927
 21
161.278543
  0
LINE
  5
76
100
AcDbEntity
  8
M0
  6
CONTINUOUS
370
13
100
AcDbLine
 10
131.180465
 20
174.157254
 11
134.948378
 21
174.157254
  0
LINE
  5
77
100
AcDbEntity
  8
M0
  6
CONTINUOUS
370
13
100
AcDbLine
 10
133.064421
 20
174.157254
 11
133.064421
 21
175.413225
  0
LINE
  5
78
100
AcDbEntity
  8
M0
  6
CONTINUOUS
370
13
100
AcDbLine
 10
131.386447
 20
160.284233
 11
131.386447
 21
161.016882
  0
LINE
  5
79
100
AcDbEntity
  8
M0
  6
CONTINUOUS
370
13
100
AcDbLine
 10
133.064421
 20
176.25054
 11
133.064421
 21
177.506511
  0
LINE
  5
7A
100
AcDbEntity
  8
M0
  6
CONTINUOUS
370
13
100
AcDbLine
 10
132.747083
 20
160.284233
 11
132.747083
 21
161.016882
  0
LINE
  5
7B
100
AcDbEntity
  8
M0
  6
CONTINUOUS
370
13
100
AcDbLine
 10
133.064421
 20
169.970684
 11
133.064421
 21
171.226655
  0
LINE
  5
7C
100
AcDbEntity
  8
M0
  6
CONTINUOUS
370
13
100
AcDbLine
 10
131.597581
 20
173.058279
 11
132.330231
 21
172.32563
  0
LINE
  5
7D
100
AcDbEntity
  8
M0
  6
CONTINUOUS
370
13
100
AcDbLine
 10
128.822173
 20
166.305114
 11
128.822173
 21
157.091972
  0
LINE
  5
7E
100
AcDbEntity
  8
M0
  6
CONTINUOUS
370
13
100
AcDbLine
 10
131.180465
 20
173.31994
 11
134.948378
 21
173.31994
  0
LINE
  5
7F
100
AcDbEntity
  8
M0
  6
CONTINUOUS
370
13
100
AcDbLine
 10
132.747083
 20
158.190947
 11
132.747083
 21
158.923597
  0
LINE
  5
80
100
AcDbEntity
  8
M0
  6
CONTINUOUS
370
13
100
AcDbLine
 10
131.386447
 20
162.377518
 11
131.386447
 21
163.110168
  0
LINE
  5
81
100
AcDbEntity
  8
M0
  6
CONTINUOUS
370
13
100
AcDbLine
 10
132.747083
 20
162.377518
 11
132.747083
 21
163.110168
  0
LINE
  5
82
100
AcDbEntity
  8
M0
  6
CONTINUOUS
370
13
100
AcDbLine
 10
132.726044
 20
163.110168
 11
132.747083
 21
163.089129
  0
LINE
  5
83
100
AcDbEntity
  8
M0
  6
CONTINUOUS
370
13
100
AcDbLine
 10
132.578027
 20
163.110168
 11
132.747083
 21
162.941111
  0
LINE
  5
84
100
AcDbEntity
  8
M0
  6
CONTINUOUS
370
13
100
AcDbLine
 10
131.393886
 20
161.016882
 11
132.126535
 21
160.284233
  0
LINE
  5
85
100
AcDbEntity
  8
M0
  6
CONTINUOUS
370
13
100
AcDbLine
 10
131.837938
 20
161.016882
 11
132.570588
 21
160.284233
  0
LINE
  5
86
100
AcDbEntity
  8
M0
  6
CONTINUOUS
370
13
100
AcDbLine
 10
131.386447
 20
162.525535
 11
131.534465
 21
162.377518
  0
LINE
  5
87
100
AcDbEntity
  8
M0
  6
CONTINUOUS
370
13
100
AcDbLine
 10
131.393886
 20
163.110168
 11
132.126535
 21
162.377518
  0
LINE
  5
88
100
AcDbEntity
  8
M0
  6
CONTINUOUS
370
13
100
AcDbLine
 10
131.386447
 20
158.338965
 11
131.534465
 21
158.190947
  0
LINE
  5
89
100
AcDbEntity
  8
M0
  6
CONTINUOUS
370
13
100
AcDbLine
 10
132.726044
 20
161.016882
 11
132.747083
 21
160.995844
  0
LINE
  5
8A
100
AcDbEntity
  8
M0
  6
CONTINUOUS
370
13
100
AcDbLine
 10
131.985956
 20
161.016882
 11
132.718606
 21
160.284233
  0
LINE
  5
8B
100
AcDbEntity
  8
M0
  6
CONTINUOUS
370
13
100
AcDbLine
 10
132.133974
 20
163.110168
 11
132.747083
 21
162.497059
  0
LINE
  5
8C
100
AcDbEntity
  8
M0
  6
CONTINUOUS
370
13
100
AcDbLine
 10
131.386447
 20
160.876303
 11
131.978518
 21
160.284233
  0
LINE
  5
8D
100
AcDbEntity
  8
M0
  6
CONTINUOUS
370
13
100
AcDbLine
 10
131.541903
 20
161.016882
 11
132.274553
 21
160.284233
  0
LINE
  5
8E
100
AcDbEntity
  8
M0
  6
CONTINUOUS
370
13
100
AcDbLine
 10
131.689921
 20
161.016882
 11
132.422571
 21
160.284233
  0
LINE
  5
8F
100
AcDbEntity
  8
M0
  6
CONTINUOUS
370
13
100
AcDbLine
 10
131.386447
 20
160.580268
 11
131.682483
 21
160.284233
  0
LINE
  5
90
100
AcDbEntity
  8
M0
  6
CONTINUOUS
370
13
100
AcDbLine
 10
131.386447
 20
162.673553
 11
131.682483
 21
162.377518
  0
LINE
  5
91
100
AcDbEntity
  8
M0
  6
CONTINUOUS
370
13
100
AcDbLine
 10
132.133974
 20
161.016882
 11
132.747083
 21
160.403773
  0
LINE
  5
92
100
AcDbEntity
  8
M0
  6
CONTINUOUS
370
13
100
AcDbLine
 10
131.386447
 20
160.728285
 11
131.8305
 21
160.284233
  0
LINE
  5
93
100
AcDbEntity
  8
M0
  6
CONTINUOUS
370
13
100
AcDbLine
 10
132.430009
 20
163.110168
 11
132.747083
 21
162.793094
  0
LINE
  5
94
100
AcDbEntity
  8
M0
  6
CONTINUOUS
370
13
100
AcDbLine
 10
131.386447
 20
160.43225
 11
131.534465
 21
160.284233
  0
LINE
  5
95
100
AcDbEntity
  8
M0
  6
CONTINUOUS
370
13
100
AcDbLine
 10
132.281991
 20
163.110168
 11
132.747083
 21
162.645076
  0
LINE
  5
96
100
AcDbEntity
  8
M0
  6
CONTINUOUS
370
13
100
AcDbLine
 10
131.689921
 20
163.110168
 11
132.422571
 21
162.377518
  0
LINE
  5
97
100
AcDbEntity
  8
M0
  6
CONTINUOUS
370
13
100
AcDbLine
 10
131.386447
 20
162.969588
 11
131.978518
 21
162.377518
  0
LINE
  5
98
100
AcDbEntity
  8
M0
  6
CONTINUOUS
370
13
100
AcDbLine
 10
131.541903
 20
163.110168
 11
132.274553
 21
162.377518
  0
LINE
  5
99
100
AcDbEntity
  8
M0
  6
CONTINUOUS
370
13
100
AcDbLine
 10
132.430009
 20
158.923597
 11
132.747083
 21
158.606523
  0
LINE
  5
9A
100
AcDbEntity
  8
M0
  6
CONTINUOUS
370
13
100
AcDbLine
 10
132.578027
 20
158.923597
 11
132.747083
 21
158.754541
  0
LINE
  5
9B
100
AcDbEntity
  8
M0
  6
CONTINUOUS
370
13
100
AcDbLine
 10
131.386447
 20
162.821571
 11
131.8305
 21
162.377518
  0
LINE
  5
9C
100
AcDbEntity
  8
M0
  6
CONTINUOUS
370
13
100
AcDbLine
 10
131.386447
 20
163.110168
 11
132.747083
 21
163.110168
  0
LINE
  5
9D
100
AcDbEntity
  8
M0
  6
CONTINUOUS
370
13
100
AcDbLine
 10
131.386447
 20
158.486983
 11
131.682483
 21
158.190947
  0
LINE
  5
9E
100
AcDbEntity
  8
M0
  6
CONTINUOUS
370
13
100
AcDbLine
 10
131.689921
 20
158.923597
 11
132.422571
 21
158.190947
  0
LINE
  5
9F
100
AcDbEntity
  8
M0
  6
CONTINUOUS
370
13
100
AcDbLine
 10
132.578027
 20
161.016882
 11
132.747083
 21
160.847826
  0
LINE
  5
A0
100
AcDbEntity
  8
M0
  6
CONTINUOUS
370
13
100
AcDbLine
 10
132.281991
 20
161.016882
 11
132.747083
 21
160.551791
  0
LINE
  5
A1
100
AcDbEntity
  8
M0
  6
CONTINUOUS
370
13
100
AcDbLine
 10
132.430009
 20
161.016882
 11
132.747083
 21
160.699809
  0
LINE
  5
A2
100
AcDbEntity
  8
M0
  6
CONTINUOUS
370
13
100
AcDbLine
 10
131.837938
 20
163.110168
 11
132.570588
 21
162.377518
  0
LINE
  5
A3
100
AcDbEntity
  8
M0
  6
CONTINUOUS
370
13
100
AcDbLine
 10
131.985956
 20
163.110168
 11
132.718606
 21
162.377518
  0
LINE
  5
A4
100
AcDbEntity
  8
M0
  6
CONTINUOUS
370
13
100
AcDbLine
 10
131.837938
 20
158.923597
 11
132.570588
 21
158.190947
  0
LINE
  5
A5
100
AcDbEntity
  8
M0
  6
CONTINUOUS
370
13
100
AcDbLine
 10
131.541903
 20
158.923597
 11
132.274553
 21
158.190947
  0
LINE
  5
A6
100
AcDbEntity
  8
M0
  6
CONTINUOUS
370
13
100
AcDbLine
 10
131.386447
 20
158.635
 11
131.8305
 21
158.190947
  0
LINE
  5
A7
100
AcDbEntity
  8
M0
  6
CONTINUOUS
370
13
100
AcDbLine
 10
131.393886
 20
158.923597
 11
132.126535
 21
158.190947
  0
LINE
  5
A8
100
AcDbEntity
  8
M0
  6
CONTINUOUS
370
13
100
AcDbLine
 10
131.442125
 20
174.418915
 11
132.802761
 21
174.418915
  0
LINE
  5
A9
100
AcDbEntity
  8
M0
  6
CONTINUOUS
370
13
100
AcDbLine
 10
131.442125
 20
175.151565
 11
132.802761
 21
175.151565
  0
LINE
  5
AA
100
AcDbEntity
  8
M0
  6
CONTINUOUS
370
13
100
AcDbLine
 10
132.802761
 20
174.418915
 11
132.802761
 21
175.151565
  0
LINE
  5
AB
100
AcDbEntity
  8
M0
  6
CONTINUOUS
370
13
100
AcDbLine
 10
132.189652
 20
173.058279
 11
132.802761
 21
172.44517
  0
LINE
  5
AC
100
AcDbEntity
  8
M0
  6
CONTINUOUS
370
13
100
AcDbLine
 10
132.633704
 20
175.151565
 11
132.802761
 21
174.982509
  0
LINE
  5
AD
100
AcDbEntity
  8
M0
  6
CONTINUOUS
370
13
100
AcDbLine
 10
131.442125
 20
174.418915
 11
131.442125
 21
175.151565
  0
LINE
  5
AE
100
AcDbEntity
  8
M0
  6
CONTINUOUS
370
13
100
AcDbLine
 10
131.442125
 20
174.71495
 11
131.73816
 21
174.418915
  0
LINE
  5
AF
100
AcDbEntity
  8
M0
  6
CONTINUOUS
370
13
100
AcDbLine
 10
131.449563
 20
175.151565
 11
132.182213
 21
174.418915
  0
LINE
  5
B0
100
AcDbEntity
  8
M0
  6
CONTINUOUS
370
13
100
AcDbLine
 10
131.442125
 20
175.010985
 11
132.034196
 21
174.418915
  0
LINE
  5
B1
100
AcDbEntity
  8
M0
  6
CONTINUOUS
370
13
100
AcDbLine
 10
131.442125
 20
174.862968
 11
131.886178
 21
174.418915
  0
LINE
  5
B2
100
AcDbEntity
  8
M0
  6
CONTINUOUS
370
13
100
AcDbLine
 10
131.386447
 20
160.284233
 11
132.747083
 21
160.284233
  0
LINE
  5
B3
100
AcDbEntity
  8
M0
  6
CONTINUOUS
370
13
100
AcDbLine
 10
131.386447
 20
162.377518
 11
132.747083
 21
162.377518
  0
LINE
  5
B4
100
AcDbEntity
  8
M0
  6
CONTINUOUS
370
13
100
AcDbLine
 10
131.386447
 20
161.016882
 11
132.747083
 21
161.016882
  0
LINE
  5
B5
100
AcDbEntity
  8
M0
  6
CONTINUOUS
370
13
100
AcDbLine
 10
131.386447
 20
158.190947
 11
132.747083
 21
158.190947
  0
LINE
  5
B6
100
AcDbEntity
  8
M0
  6
CONTINUOUS
370
13
100
AcDbLine
 10
131.386447
 20
158.190947
 11
131.386447
 21
158.923597
  0
LINE
  5
B7
100
AcDbEntity
  8
M0
  6
CONTINUOUS
370
13
100
AcDbLine
 10
134.948378
 20
176.25054
 11
134.948378
 21
177.506511
  0
LINE
  5
B8
100
AcDbEntity
  8
M0
  6
CONTINUOUS
370
13
100
AcDbLine
 10
132.781722
 20
175.151565
 11
132.802761
 21
175.130526
  0
LINE
  5
B9
100
AcDbEntity
  8
M0
  6
CONTINUOUS
370
13
100
AcDbLine
 10
131.442125
 20
174.566933
 11
131.590143
 21
174.418915
  0
LINE
  5
BA
100
AcDbEntity
  8
M0
  6
CONTINUOUS
370
13
100
AcDbLine
 10
131.180465
 20
176.25054
 11
131.180465
 21
177.506511
  0
LINE
  5
BB
100
AcDbEntity
  8
M0
  6
CONTINUOUS
370
13
100
AcDbLine
 10
131.180465
 20
174.157254
 11
131.180465
 21
175.413225
  0
LINE
  5
BC
100
AcDbEntity
  8
M0
  6
CONTINUOUS
370
13
100
AcDbLine
 10
134.948378
 20
174.157254
 11
134.948378
 21
175.413225
  0
LINE
  5
BD
100
AcDbEntity
  8
M0
  6
CONTINUOUS
370
13
100
AcDbLine
 10
131.386447
 20
158.923597
 11
132.747083
 21
158.923597
  0
LINE
  5
BE
100
AcDbEntity
  8
M0
  6
CONTINUOUS
370
13
100
AcDbLine
 10
133.008743
 20
164.209142
 11
133.008743
 21
165.465114
  0
LINE
  5
BF
100
AcDbEntity
  8
M0
  6
CONTINUOUS
370
13
100
AcDbLine
 10
133.008743
 20
162.115857
 11
133.008743
 21
163.371828
  0
LINE
  5
C0
100
AcDbEntity
  8
M0
  6
CONTINUOUS
370
13
100
AcDbLine
 10
133.008743
 20
157.929287
 11
133.008743
 21
159.185258
  0
LINE
  5
C1
100
AcDbEntity
  8
M0
  6
CONTINUOUS
370
13
100
AcDbLine
 10
133.008743
 20
160.022572
 11
133.008743
 21
161.278543
  0
LINE
  5
C2
100
AcDbEntity
  8
M0
  6
CONTINUOUS
370
13
100
AcDbLine
 10
131.124787
 20
163.371828
 11
134.8927
 21
163.371828
  0
LINE
  5
C3
100
AcDbEntity
  8
M0
  6
CONTINUOUS
370
13
100
AcDbLine
 10
131.124787
 20
162.115857
 11
131.124787
 21
163.371828
  0
LINE
  5
C4
100
AcDbEntity
  8
M0
  6
CONTINUOUS
370
13
100
AcDbLine
 10
131.180465
 20
169.13337
 11
134.948378
 21
169.13337
  0
LINE
  5
C5
100
AcDbEntity
  8
M0
  6
CONTINUOUS
370
13
100
AcDbLine
 10
131.124787
 20
164.209142
 11
134.8927
 21
164.209142
  0
LINE
  5
C6
100
AcDbEntity
  8
M0
  6
CONTINUOUS
370
13
100
AcDbLine
 10
131.124787
 20
160.022572
 11
134.8927
 21
160.022572
  0
LINE
  5
C7
100
AcDbEntity
  8
M0
  6
CONTINUOUS
370
13
100
AcDbLine
 10
134.948378
 20
172.063969
 11
134.948378
 21
173.31994
  0
LINE
  5
C8
100
AcDbEntity
  8
M0
  6
CONTINUOUS
370
13
100
AcDbLine
 10
131.124787
 20
164.209142
 11
131.124787
 21
165.465114
  0
LINE
  5
C9
100
AcDbEntity
  8
M0
  6
CONTINUOUS
370
13
100
AcDbLine
 10
134.948378
 20
169.970684
 11
134.948378
 21
171.226655
  0
LINE
  5
CA
100
AcDbEntity
  8
M0
  6
CONTINUOUS
370
13
100
AcDbLine
 10
134.8927
 20
157.929287
 11
134.8927
 21
159.185258
  0
LINE
  5
CB
100
AcDbEntity
  8
M0
  6
CONTINUOUS
370
13
100
AcDbLine
 10
134.8927
 20
164.209142
 11
134.8927
 21
165.465114
  0
LINE
  5
CC
100
AcDbEntity
  8
M0
  6
CONTINUOUS
370
13
100
AcDbLine
 10
131.180465
 20
171.226655
 11
134.948378
 21
171.226655
  0
LINE
  5
CD
100
AcDbEntity
  8
M0
  6
CONTINUOUS
370
13
100
AcDbLine
 10
131.180465
 20
169.970684
 11
134.948378
 21
169.970684
  0
LINE
  5
CE
100
AcDbEntity
  8
M0
  6
CONTINUOUS
370
13
100
AcDbLine
 10
131.180465
 20
172.063969
 11
131.180465
 21
173.31994
  0
LINE
  5
CF
100
AcDbEntity
  8
M0
  6
CONTINUOUS
370
13
100
AcDbLine
 10
132.337669
 20
175.151565
 11
132.802761
 21
174.686473
  0
LINE
  5
D0
100
AcDbEntity
  8
M0
  6
CONTINUOUS
370
13
100
AcDbLine
 10
131.597581
 20
175.151565
 11
132.330231
 21
174.418915
  0
LINE
  5
D1
100
AcDbEntity
  8
M0
  6
CONTINUOUS
370
13
100
AcDbLine
 10
132.485687
 20
175.151565
 11
132.802761
 21
174.834491
  0
LINE
  5
D2
100
AcDbEntity
  8
M0
  6
CONTINUOUS
370
13
100
AcDbLine
 10
131.386447
 20
158.783018
 11
131.978518
 21
158.190947
  0
LINE
  5
D3
100
AcDbEntity
  8
M0
  6
CONTINUOUS
370
13
100
AcDbLine
 10
131.745599
 20
175.151565
 11
132.478249
 21
174.418915
  0
LINE
  5
D4
100
AcDbEntity
  8
M0
  6
CONTINUOUS
370
13
100
AcDbLine
 10
131.893616
 20
175.151565
 11
132.626266
 21
174.418915
  0
LINE
  5
D5
100
AcDbEntity
  8
M0
  6
CONTINUOUS
370
13
100
AcDbLine
 10
131.449564
 20
173.058279
 11
132.182213
 21
172.32563
  0
LINE
  5
D6
100
AcDbEntity
  8
M0
  6
CONTINUOUS
370
13
100
AcDbLine
 10
131.442125
 20
172.621665
 11
131.738161
 21
172.32563
  0
LINE
  5
D7
100
AcDbEntity
  8
M0
  6
CONTINUOUS
370
13
100
AcDbLine
 10
131.442125
 20
172.9177
 11
132.034196
 21
172.32563
  0
LINE
  5
D8
100
AcDbEntity
  8
M0
  6
CONTINUOUS
370
13
100
AcDbLine
 10
131.442125
 20
172.473647
 11
131.590143
 21
172.32563
  0
LINE
  5
D9
100
AcDbEntity
  8
M0
  6
CONTINUOUS
370
13
100
AcDbLine
 10
132.189652
 20
175.151565
 11
132.802761
 21
174.538456
  0
LINE
  5
DA
100
AcDbEntity
  8
M0
  6
CONTINUOUS
370
13
100
AcDbLine
 10
132.633705
 20
173.058279
 11
132.802761
 21
172.889223
  0
LINE
  5
DB
100
AcDbEntity
  8
M0
  6
CONTINUOUS
370
13
100
AcDbLine
 10
132.041634
 20
173.058279
 11
132.774284
 21
172.32563
  0
LINE
  5
DC
100
AcDbEntity
  8
M0
  6
CONTINUOUS
370
13
100
AcDbLine
 10
131.180465
 20
169.970684
 11
131.180465
 21
171.226655
  0
LINE
  5
DD
100
AcDbEntity
  8
M0
  6
CONTINUOUS
370
13
100
AcDbLine
 10
131.893616
 20
173.058279
 11
132.626266
 21
172.32563
  0
LINE
  5
DE
100
AcDbEntity
  8
M0
  6
CONTINUOUS
370
13
100
AcDbLine
 10
131.180465
 20
172.063969
 11
134.948378
 21
172.063969
  0
LINE
  5
DF
100
AcDbEntity
  8
M0
  6
CONTINUOUS
370
13
100
AcDbLine
 10
132.041634
 20
175.151565
 11
132.774284
 21
174.418915
  0
LINE
  5
E0
100
AcDbEntity
  8
M0
  6
CONTINUOUS
370
13
100
AcDbLine
 10
131.745599
 20
173.058279
 11
132.478249
 21
172.32563
  0
LINE
  5
E1
100
AcDbEntity
  8
M0
  6
CONTINUOUS
370
13
100
AcDbLine
 10
132.337669
 20
173.058279
 11
132.802761
 21
172.593188
  0
LINE
  5
E2
100
AcDbEntity
  8
M0
  6
CONTINUOUS
370
13
100
AcDbLine
 10
131.442125
 20
172.769683
 11
131.886178
 21
172.32563
  0
TEXT
  5
E3
100
AcDbEntity
  8
M0
100
AcDbText
 10
135.151149
 20
173.112626
 40
1.046643
  1
３
 50
270.000001
 41
0.983333
  7
STANDARD
100
AcDbText
  0
TEXT
  5
E4
100
AcDbEntity
  8
M0
100
AcDbText
 10
135.151149
 20
171.019372
 40
1.046643
  1
４
 50
270.000001
 41
0.983333
  7
STANDARD
100
AcDbText
  0
TEXT
  5
E5
100
AcDbEntity
  8
M0
100
AcDbText
 10
135.151149
 20
175.205903
 40
1.046643
  1
２
 50
270.000001
 41
0.983333
  7
STANDARD
100
AcDbText
  0
TEXT
  5
E6
100
AcDbEntity
  8
M0
100
AcDbText
 10
135.151149
 20
177.299211
 40
1.046643
  1
１
 50
270.000001
 41
0.983333
  7
STANDARD
100
AcDbText
  0
TEXT
  5
E7
100
AcDbEntity
  8
M0
100
AcDbText
 10
135.095478
 20
165.257806
 40
1.046643
  1
５
 50
270.000001
 41
0.983333
  7
STANDARD
100
AcDbText
  0
TEXT
  5
E8
100
AcDbEntity
  8
M0
100
AcDbText
 10
135.095478
 20
161.071202
 40
1.046643
  1
７
 50
270.000001
 41
0.983333
  7
STANDARD
100
AcDbText
  0
TEXT
  5
E9
100
AcDbEntity
  8
M0
100
AcDbText
 10
135.095478
 20
163.164544
 40
1.046643
  1
６
 50
270.000001
 41
0.983333
  7
STANDARD
100
AcDbText
  0
TEXT
  5
EA
100
AcDbEntity
  8
M0
100
AcDbText
 10
135.095478
 20
158.977933
 40
1.046643
  1
８
 50
270.000001
 41
0.983333
  7
STANDARD
100
AcDbText
  0
TEXT
  5
EB
100
AcDbEntity
  8
M0
100
AcDbText
 10
136.546627
 20
177.625744
 40
1.046643
  1
ＯＮ
 50
270.000001
 41
0.833334
  7
STANDARD
100
AcDbText
  0
LINE
  5
EC
100
AcDbEntity
  8
M0
  6
CONTINUOUS
370
13
100
AcDbLine
 10
132.781722
 20
173.058279
 11
132.802761
 21
173.037241
  0
LINE
  5
ED
100
AcDbEntity
  8
M0
  6
CONTINUOUS
370
13
100
AcDbLine
 10
132.485687
 20
173.058279
 11
132.802761
 21
172.741206
  0
LINE
  5
EE
100
AcDbEntity
  8
M0
  6
CONTINUOUS
370
13
100
AcDbLine
 10
132.133974
 20
165.203453
 11
132.747083
 21
164.590344
  0
LINE
  5
EF
100
AcDbEntity
  8
M0
  6
CONTINUOUS
370
13
100
AcDbLine
 10
131.386447
 20
164.766838
 11
131.682483
 21
164.470803
  0
LINE
  5
F0
100
AcDbEntity
  8
M0
  6
CONTINUOUS
370
13
100
AcDbLine
 10
131.386447
 20
164.618821
 11
131.534465
 21
164.470803
  0
LINE
  5
F1
100
AcDbEntity
  8
M0
  6
CONTINUOUS
370
13
100
AcDbLine
 10
131.393886
 20
165.203453
 11
132.126535
 21
164.470803
  0
LINE
  5
F2
100
AcDbEntity
  8
M0
  6
CONTINUOUS
370
13
100
AcDbLine
 10
131.689921
 20
165.203453
 11
132.422571
 21
164.470803
  0
LINE
  5
F3
100
AcDbEntity
  8
M0
  6
CONTINUOUS
370
13
100
AcDbLine
 10
131.386447
 20
165.062874
 11
131.978518
 21
164.470803
  0
LINE
  5
F4
100
AcDbEntity
  8
M0
  6
CONTINUOUS
370
13
100
AcDbLine
 10
132.430009
 20
165.203453
 11
132.747083
 21
164.886379
  0
LINE
  5
F5
100
AcDbEntity
  8
M0
  6
CONTINUOUS
370
13
100
AcDbLine
 10
132.281991
 20
165.203453
 11
132.747083
 21
164.738362
  0
LINE
  5
F6
100
AcDbEntity
  8
M0
  6
CONTINUOUS
370
13
100
AcDbLine
 10
132.578027
 20
165.203453
 11
132.747083
 21
165.034397
  0
LINE
  5
F7
100
AcDbEntity
  8
M0
  6
CONTINUOUS
370
13
100
AcDbLine
 10
131.837938
 20
165.203453
 11
132.570588
 21
164.470803
  0
LINE
  5
F8
100
AcDbEntity
  8
M0
  6
CONTINUOUS
370
13
100
AcDbLine
 10
131.985956
 20
165.203453
 11
132.718606
 21
164.470803
  0
LINE
  5
F9
100
AcDbEntity
  8
M0
  6
CONTINUOUS
370
13
100
AcDbLine
 10
131.386447
 20
164.914856
 11
131.8305
 21
164.470803
  0
LINE
  5
FA
100
AcDbEntity
  8
M0
  6
CONTINUOUS
370
13
100
AcDbLine
 10
131.386447
 20
165.203453
 11
132.747083
 21
165.203453
  0
LINE
  5
FB
100
AcDbEntity
  8
M0
  6
CONTINUOUS
370
13
100
AcDbLine
 10
132.747083
 20
164.470803
 11
132.747083
 21
165.203453
  0
LINE
  5
FC
100
AcDbEntity
  8
M0
  6
CONTINUOUS
370
13
100
AcDbLine
 10
131.386447
 20
164.470803
 11
132.747083
 21
164.470803
  0
LINE
  5
FD
100
AcDbEntity
  8
M0
  6
CONTINUOUS
370
13
100
AcDbLine
 10
131.386447
 20
164.470803
 11
131.386447
 21
165.203453
  0
LINE
  5
FE
100
AcDbEntity
  8
M0
  6
CONTINUOUS
370
13
100
AcDbLine
 10
131.541903
 20
165.203453
 11
132.274553
 21
164.470803
  0
LINE
  5
FF
100
AcDbEntity
  8
M0
  6
CONTINUOUS
370
13
100
AcDbLine
 10
131.597581
 20
177.24485
 11
132.330231
 21
176.5122
  0
LINE
  5
100
100
AcDbEntity
  8
M0
  6
CONTINUOUS
370
13
100
AcDbLine
 10
132.485687
 20
177.24485
 11
132.802761
 21
176.927776
  0
LINE
  5
101
100
AcDbEntity
  8
M0
  6
CONTINUOUS
370
13
100
AcDbLine
 10
131.442125
 20
176.660218
 11
131.590143
 21
176.5122
  0
LINE
  5
102
100
AcDbEntity
  8
M0
  6
CONTINUOUS
370
13
100
AcDbLine
 10
132.337669
 20
177.24485
 11
132.802761
 21
176.779759
  0
LINE
  5
103
100
AcDbEntity
  8
M0
  6
CONTINUOUS
370
13
100
AcDbLine
 10
132.189652
 20
177.24485
 11
132.802761
 21
176.631741
  0
LINE
  5
104
100
AcDbEntity
  8
M0
  6
CONTINUOUS
370
13
100
AcDbLine
 10
132.041634
 20
177.24485
 11
132.774284
 21
176.5122
  0
LINE
  5
105
100
AcDbEntity
  8
M0
  6
CONTINUOUS
370
13
100
AcDbLine
 10
131.745599
 20
177.24485
 11
132.478249
 21
176.5122
  0
LINE
  5
106
100
AcDbEntity
  8
M0
  6
CONTINUOUS
370
13
100
AcDbLine
 10
131.893616
 20
177.24485
 11
132.626266
 21
176.5122
  0
LINE
  5
107
100
AcDbEntity
  8
M0
  6
CONTINUOUS
370
13
100
AcDbLine
 10
132.781722
 20
177.24485
 11
132.802761
 21
177.223811
  0
LINE
  5
108
100
AcDbEntity
  8
M0
  6
CONTINUOUS
370
13
100
AcDbLine
 10
132.633704
 20
177.24485
 11
132.802761
 21
177.075794
  0
LINE
  5
109
100
AcDbEntity
  8
M0
  6
CONTINUOUS
370
13
100
AcDbLine
 10
131.442125
 20
176.5122
 11
131.442125
 21
177.24485
  0
LINE
  5
10A
100
AcDbEntity
  8
M0
  6
CONTINUOUS
370
13
100
AcDbLine
 10
131.442125
 20
177.24485
 11
132.802761
 21
177.24485
  0
LINE
  5
10B
100
AcDbEntity
  8
M0
  6
CONTINUOUS
370
13
100
AcDbLine
 10
132.802761
 20
176.5122
 11
132.802761
 21
177.24485
  0
LINE
  5
10C
100
AcDbEntity
  8
M0
  6
CONTINUOUS
370
13
100
AcDbLine
 10
131.442125
 20
177.104271
 11
132.034196
 21
176.5122
  0
LINE
  5
10D
100
AcDbEntity
  8
M0
  6
CONTINUOUS
370
13
100
AcDbLine
 10
131.442125
 20
176.956253
 11
131.886178
 21
176.5122
  0
LINE
  5
10E
100
AcDbEntity
  8
M0
  6
CONTINUOUS
370
13
100
AcDbLine
 10
131.442125
 20
176.808235
 11
131.73816
 21
176.5122
  0
LINE
  5
10F
100
AcDbEntity
  8
M0
  6
CONTINUOUS
370
13
100
AcDbLine
 10
131.449563
 20
177.24485
 11
132.182213
 21
176.5122
  0
LINE
  5
110
100
AcDbEntity
  8
M0
  6
CONTINUOUS
370
13
100
AcDbLine
 10
131.442125
 20
176.5122
 11
132.802761
 21
176.5122
  0
LINE
  5
111
100
AcDbEntity
  8
M0
  6
CONTINUOUS
370
13
100
AcDbLine
 10
131.597581
 20
170.964994
 11
132.330231
 21
170.232344
  0
LINE
  5
112
100
AcDbEntity
  8
M0
  6
CONTINUOUS
370
13
100
AcDbLine
 10
132.485687
 20
170.964994
 11
132.802761
 21
170.64792
  0
LINE
  5
113
100
AcDbEntity
  8
M0
  6
CONTINUOUS
370
13
100
AcDbLine
 10
131.442125
 20
170.380362
 11
131.590143
 21
170.232344
  0
LINE
  5
114
100
AcDbEntity
  8
M0
  6
CONTINUOUS
370
13
100
AcDbLine
 10
132.337669
 20
170.964994
 11
132.802761
 21
170.499903
  0
LINE
  5
115
100
AcDbEntity
  8
M0
  6
CONTINUOUS
370
13
100
AcDbLine
 10
132.189652
 20
170.964994
 11
132.802761
 21
170.351885
  0
LINE
  5
116
100
AcDbEntity
  8
M0
  6
CONTINUOUS
370
13
100
AcDbLine
 10
132.041634
 20
170.964994
 11
132.774284
 21
170.232344
  0
LINE
  5
117
100
AcDbEntity
  8
M0
  6
CONTINUOUS
370
13
100
AcDbLine
 10
131.745599
 20
170.964994
 11
132.478249
 21
170.232344
  0
LINE
  5
118
100
AcDbEntity
  8
M0
  6
CONTINUOUS
370
13
100
AcDbLine
 10
131.893616
 20
170.964994
 11
132.626266
 21
170.232344
  0
LINE
  5
119
100
AcDbEntity
  8
M0
  6
CONTINUOUS
370
13
100
AcDbLine
 10
132.781722
 20
170.964994
 11
132.802761
 21
170.943956
  0
LINE
  5
11A
100
AcDbEntity
  8
M0
  6
CONTINUOUS
370
13
100
AcDbLine
 10
132.633704
 20
170.964994
 11
132.802761
 21
170.795938
  0
LINE
  5
11B
100
AcDbEntity
  8
M0
  6
CONTINUOUS
370
13
100
AcDbLine
 10
131.442125
 20
170.232344
 11
131.442125
 21
170.964994
  0
LINE
  5
11C
100
AcDbEntity
  8
M0
  6
CONTINUOUS
370
13
100
AcDbLine
 10
131.442125
 20
170.964994
 11
132.802761
 21
170.964994
  0
LINE
  5
11D
100
AcDbEntity
  8
M0
  6
CONTINUOUS
370
13
100
AcDbLine
 10
132.802761
 20
170.232344
 11
132.802761
 21
170.964994
  0
LINE
  5
11E
100
AcDbEntity
  8
M0
  6
CONTINUOUS
370
13
100
AcDbLine
 10
131.442125
 20
170.824415
 11
132.034196
 21
170.232344
  0
LINE
  5
11F
100
AcDbEntity
  8
M0
  6
CONTINUOUS
370
13
100
AcDbLine
 10
131.442125
 20
170.676397
 11
131.886178
 21
170.232344
  0
LINE
  5
120
100
AcDbEntity
  8
M0
  6
CONTINUOUS
370
13
100
AcDbLine
 10
131.442125
 20
170.52838
 11
131.73816
 21
170.232344
  0
LINE
  5
121
100
AcDbEntity
  8
M0
  6
CONTINUOUS
370
13
100
AcDbLine
 10
131.449563
 20
170.964994
 11
132.182213
 21
170.232344
  0
LINE
  5
122
100
AcDbEntity
  8
M0
  6
CONTINUOUS
370
13
100
AcDbLine
 10
131.442125
 20
170.232344
 11
132.802761
 21
170.232344
  0
LINE
  5
123
100
AcDbEntity
  8
M0
  6
CONTINUOUS
370
13
100
AcDbLine
 10
211.426836
 20
86.304162
 11
213.321942
 21
86.304162
  0
LINE
  5
124
100
AcDbEntity
  8
M0
  6
CONTINUOUS
370
13
100
AcDbLine
 10
211.426836
 20
89.46267
 11
213.321942
 21
89.46267
  0
LINE
  5
125
100
AcDbEntity
  8
M0
  6
DASHDOT
370
13
100
AcDbLine
 10
204.883715
 20
78.455264
 11
204.883715
 21
100.470075
  0
LINE
  5
126
100
AcDbEntity
  8
M0
  6
DASHDOT
370
13
100
AcDbLine
 10
225.396184
 20
100.470075
 11
204.883715
 21
100.470075
  0
LINE
  5
127
100
AcDbEntity
  8
M0
  6
CONTINUOUS
370
13
100
AcDbLine
 10
215.532898
 20
84.455264
 11
215.532898
 21
94.470075
  0
LINE
  5
128
100
AcDbEntity
  8
M0
  6
CONTINUOUS
370
13
100
AcDbLine
 10
215.532898
 20
94.470075
 11
209.215883
 21
94.470075
  0
LINE
  5
129
100
AcDbEntity
  8
M0
  6
CONTINUOUS
370
13
100
AcDbLine
 10
209.215883
 20
94.470075
 11
209.215883
 21
84.455264
  0
LINE
  5
12A
100
AcDbEntity
  8
M0
  6
CONTINUOUS
370
13
100
AcDbLine
 10
209.215883
 20
84.455264
 11
215.532898
 21
84.455264
  0
LINE
  5
12B
100
AcDbEntity
  8
M0
  6
CONTINUOUS
370
13
100
AcDbLine
 10
213.321943
 20
92.620151
 11
211.426837
 21
92.620151
  0
CIRCLE
  5
12C
100
AcDbEntity
  8
M0
  6
CONTINUOUS
370
13
100
AcDbCircle
 10
210.795136
 20
89.461643
 40
0.631702
  0
CIRCLE
  5
12D
100
AcDbEntity
  8
M0
  6
CONTINUOUS
370
13
100
AcDbCircle
 10
210.795136
 20
86.303136
 40
0.631702
  0
CIRCLE
  5
12E
100
AcDbEntity
  8
M0
  6
CONTINUOUS
370
13
100
AcDbCircle
 10
213.953644
 20
86.304162
 40
0.631702
  0
CIRCLE
  5
12F
100
AcDbEntity
  8
M0
  6
CONTINUOUS
370
13
100
AcDbCircle
 10
213.953644
 20
92.621177
 40
0.631702
  0
TEXT
  5
130
100
AcDbEntity
  8
M0
100
AcDbText
 10
207.323209
 20
73.722163
 40
2.9376
  1
ヒートポンプユニット
 41
0.694444
  7
STANDARD
100
AcDbText
  0
TEXT
  5
131
100
AcDbEntity
  8
M0
100
AcDbText
 10
216.003782
 20
89.462658
 40
2.105672
  1
白
 41
0.833333
  7
STANDARD
100
AcDbText
  0
TEXT
  5
132
100
AcDbEntity
  8
M0
100
AcDbText
 10
216.003782
 20
92.621166
 40
2.105672
  1
黒
 41
0.833333
  7
STANDARD
100
AcDbText
  0
TEXT
  5
133
100
AcDbEntity
  8
M0
100
AcDbText
 10
216.003782
 20
86.304157
 40
2.105672
  1
赤
 41
0.833333
  7
STANDARD
100
AcDbText
  0
LINE
  5
134
100
AcDbEntity
  8
M0
  6
DASHDOT
370
13
100
AcDbLine
 10
225.396184
 20
78.455264
 11
204.883715
 21
78.455264
  0
LINE
  5
4F
102
{ACAD_REACTORS
330
4E
102
}
330
1F
100
AcDbEntity
  8
M0
  6
DASHED
370
13
100
AcDbLine
 10
210.163434
 20
92.620151
 11
181.087497
 21
92.620151
  0
LINE
  5
53
102
{ACAD_REACTORS
330
52
102
}
330
1F
100
AcDbEntity
  8
M0
  6
DASHED
370
13
100
AcDbLine
 10
181.087498
 20
89.46267
 11
210.163435
 21
89.46267
  0
LINE
  5
57
102
{ACAD_REACTORS
330
56
102
}
330
1F
100
AcDbEntity
  8
M0
  6
DASHED
370
13
100
AcDbLine
 10
181.087498
 20
86.304162
 11
210.163435
 21
86.304162
  0
LINE
  5
135
100
AcDbEntity
  8
M0
  6
CONTINUOUS
370
13
100
AcDbLine
 10
177.928988
 20
86.303136
 11
179.824094
 21
86.303136
  0
LINE
  5
136
100
AcDbEntity
  8
M0
  6
CONTINUOUS
370
13
100
AcDbLine
 10
179.824093
 20
92.619125
 11
177.928989
 21
92.619125
  0
LINE
  5
137
100
AcDbEntity
  8
M0
  6
CONTINUOUS
370
13
100
AcDbLine
 10
182.03505
 20
84.454238
 11
182.03505
 21
94.469049
  0
LINE
  5
138
100
AcDbEntity
  8
M0
  6
CONTINUOUS
370
13
100
AcDbLine
 10
175.718035
 20
94.469049
 11
175.718035
 21
84.454238
  0
LINE
  5
139
100
AcDbEntity
  8
M0
  6
CONTINUOUS
370
13
100
AcDbLine
 10
182.03505
 20
94.469049
 11
175.718035
 21
94.469049
  0
LINE
  5
13A
100
AcDbEntity
  8
M0
  6
CONTINUOUS
370
13
100
AcDbLine
 10
177.928988
 20
89.461643
 11
179.824094
 21
89.461643
  0
LINE
  5
13B
100
AcDbEntity
  8
M0
  6
CONTINUOUS
370
13
100
AcDbLine
 10
175.718035
 20
84.454238
 11
182.03505
 21
84.454238
  0
LINE
  5
13C
100
AcDbEntity
  8
M0
  6
DASHED
370
13
100
AcDbLine
 10
69.975071
 20
69.24524
 11
69.975071
 21
42.009043
  0
LINE
  5
13D
100
AcDbEntity
  8
M0
  6
CONTINUOUS
370
13
100
AcDbLine
 10
68.531182
 20
41.287098
 11
71.41896
 21
41.287098
  0
LINE
  5
13E
100
AcDbEntity
  8
M0
  6
CONTINUOUS
370
13
100
AcDbLine
 10
70.697015
 20
40.458585
 11
69.253126
 21
40.458585
  0
LINE
  5
13F
100
AcDbEntity
  8
M0
  6
CONTINUOUS
370
13
100
AcDbLine
 10
69.975071
 20
69.24524
 11
73.736481
 21
61.890126
  0
LINE
  5
140
100
AcDbEntity
  8
M0
  6
CONTINUOUS
370
13
100
AcDbLine
 10
69.975071
 20
47.062655
 11
69.975071
 21
44.896821
  0
LINE
  5
141
100
AcDbEntity
  8
M0
  6
CONTINUOUS
370
13
100
AcDbLine
 10
67.809237
 20
42.009043
 11
72.140905
 21
42.009043
  0
LINE
  5
142
100
AcDbEntity
  8
M0
  6
CONTINUOUS
370
13
100
AcDbLine
 10
129.674112
 20
234.613295
 11
129.660472
 21
227.477791
  0
LINE
  5
143
100
AcDbEntity
  8
M0
  6
CONTINUOUS
370
13
100
AcDbLine
 10
258.118122
 20
174.569519
 11
382.22619
 21
174.569519
  0
LINE
  5
144
100
AcDbEntity
  8
M0
  6
CONTINUOUS
370
13
100
AcDbLine
 10
258.118122
 20
174.569519
 11
258.118122
 21
95.460387
  0
LINE
  5
145
100
AcDbEntity
  8
M0
  6
CONTINUOUS
370
13
100
AcDbLine
 10
258.118122
 20
95.460387
 11
382.22619
 21
95.460387
  0
LINE
  5
146
100
AcDbEntity
  8
M0
  6
CONTINUOUS
370
13
100
AcDbLine
 10
77.714778
 20
191.407368
 11
77.714778
 21
167.777528
  0
LINE
  5
147
100
AcDbEntity
  8
M0
  6
CONTINUOUS
370
13
100
AcDbLine
 10
78.344114
 20
131.796802
 11
98.188248
 21
131.796802
  0
LINE
  5
148
100
AcDbEntity
  8
M0
  6
CONTINUOUS
370
13
100
AcDbLine
 10
83.884166
 20
128.245418
 11
98.188248
 21
128.245418
  0
LINE
  5
149
100
AcDbEntity
  8
M0
  6
CONTINUOUS
370
13
100
AcDbLine
 10
84.515867
 20
92.620151
 11
150.798447
 21
92.620151
  0
LINE
  5
14A
100
AcDbEntity
  8
M0
  6
CONTINUOUS
370
13
100
AcDbLine
 10
83.884166
 20
89.46267
 11
150.798448
 21
89.46267
  0
LINE
  5
14B
100
AcDbEntity
  8
M0
  6
CONTINUOUS
370
13
100
AcDbLine
 10
78.344114
 20
92.620151
 11
83.265078
 21
92.620151
  0
LINE
  5
14C
100
AcDbEntity
  8
M0
  6
CONTINUOUS
370
13
100
AcDbLine
 10
151.430149
 20
86.30211
 11
176.665586
 21
86.30211
  0
LINE
  5
14D
100
AcDbEntity
  8
M0
  6
CONTINUOUS
370
13
100
AcDbLine
 10
152.061849
 20
92.619125
 11
176.665586
 21
92.619125
  0
LINE
  5
14E
100
AcDbEntity
  8
M0
  6
CONTINUOUS
370
13
100
AcDbLine
 10
152.06185
 20
89.461643
 11
176.665587
 21
89.461643
  0
CIRCLE
  5
14F
100
AcDbEntity
  8
M0
  6
CONTINUOUS
370
13
100
AcDbCircle
 10
213.953644
 20
89.46267
 40
0.631702
  0
CIRCLE
  5
150
100
AcDbEntity
  8
M0
  6
CONTINUOUS
370
13
100
AcDbCircle
 10
210.795136
 20
92.620151
 40
0.631702
  0
CIRCLE
  5
151
100
AcDbEntity
  8
M0
  6
CONTINUOUS
370
13
100
AcDbCircle
 10
180.455796
 20
89.461643
 40
0.631702
  0
CIRCLE
  5
152
100
AcDbEntity
  8
M0
  6
CONTINUOUS
370
13
100
AcDbCircle
 10
180.455796
 20
92.620151
 40
0.631702
  0
CIRCLE
  5
153
100
AcDbEntity
  8
M0
  6
CONTINUOUS
370
13
100
AcDbCircle
 10
177.297287
 20
86.30211
 40
0.631702
  0
CIRCLE
  5
154
100
AcDbEntity
  8
M0
  6
CONTINUOUS
370
13
100
AcDbCircle
 10
177.297287
 20
92.619125
 40
0.631702
  0
CIRCLE
  5
155
100
AcDbEntity
  8
M0
  6
CONTINUOUS
370
13
100
AcDbCircle
 10
180.455796
 20
86.303136
 40
0.631702
  0
CIRCLE
  5
156
100
AcDbEntity
  8
M0
  6
CONTINUOUS
370
13
100
AcDbCircle
 10
177.297287
 20
89.460617
 40
0.631702
  0
CIRCLE
  5
157
100
AcDbEntity
  8
M0
  6
CONTINUOUS
370
13
100
AcDbCircle
 10
69.975071
 20
69.967185
 40
0.721945
  0
ARC
  5
158
100
AcDbEntity
  8
M0
  6
CONTINUOUS
370
13
100
AcDbCircle
 10
83.884166
 20
92.620151
 40
0.631702
100
AcDbArc
 50
0.0
 51
180.0
  0
ARC
  5
159
100
AcDbEntity
  8
M0
  6
CONTINUOUS
370
13
100
AcDbCircle
 10
151.430149
 20
89.461643
 40
0.631702
100
AcDbArc
 50
0.0
 51
180.0
  0
ARC
  5
15A
100
AcDbEntity
  8
M0
  6
CONTINUOUS
370
13
100
AcDbCircle
 10
151.430149
 20
92.620151
 40
0.631702
100
AcDbArc
 50
0.0
 51
180.0
  0
TEXT
  5
15B
100
AcDbEntity
  8
M0
100
AcDbText
 10
173.672866
 20
89.461643
 40
2.105672
  1
白
 41
0.833333
  7
STANDARD
100
AcDbText
  0
TEXT
  5
15C
100
AcDbEntity
  8
M0
100
AcDbText
 10
173.672866
 20
86.303135
 40
2.105672
  1
赤
 41
0.833333
  7
STANDARD
100
AcDbText
  0
TEXT
  5
15D
100
AcDbEntity
  8
M0
100
AcDbText
 10
173.672866
 20
92.620144
 40
2.105672
  1
黒
 41
0.833333
  7
STANDARD
100
AcDbText
  0
TEXT
  5
15E
100
AcDbEntity
  8
M0
100
AcDbText
 10
67.690468
 20
63.960269
 40
3.13344
  1
ア
 41
0.645833
  7
STANDARD
100
AcDbText
  0
TEXT
  5
15F
100
AcDbEntity
  8
M0
100
AcDbText
 10
67.690468
 20
59.704013
 40
3.13344
  1
｜
 41
0.645833
  7
STANDARD
100
AcDbText
  0
TEXT
  5
160
100
AcDbEntity
  8
M0
100
AcDbText
 10
67.690468
 20
55.447758
 40
3.13344
  1
ス
 41
0.645833
  7
STANDARD
100
AcDbText
  0
TEXT
  5
161
100
AcDbEntity
  8
M0
100
AcDbText
 10
67.690468
 20
51.191502
 40
3.13344
  1
　
 41
0.645833
  7
STANDARD
100
AcDbText
  0
TEXT
  5
162
100
AcDbEntity
  8
M0
100
AcDbText
 10
72.33886
 20
58.156854
 40
3.13344
  1
ア
 41
0.645833
  7
STANDARD
100
AcDbText
  0
TEXT
  5
163
100
AcDbEntity
  8
M0
100
AcDbText
 10
72.33886
 20
53.900598
 40
3.13344
  1
｜
 41
0.645833
  7
STANDARD
100
AcDbText
  0
TEXT
  5
164
100
AcDbEntity
  8
M0
100
AcDbText
 10
72.33886
 20
49.644342
 40
3.13344
  1
ス
 41
0.645833
  7
STANDARD
100
AcDbText
  0
TEXT
  5
165
100
AcDbEntity
  8
M0
100
AcDbText
 10
72.33886
 20
45.388087
 40
3.13344
  1
端
 41
0.645833
  7
STANDARD
100
AcDbText
  0
TEXT
  5
166
100
AcDbEntity
  8
M0
100
AcDbText
 10
72.33886
 20
41.131831
 40
3.13344
  1
子
 41
0.645833
  7
STANDARD
100
AcDbText
  0
TEXT
  5
167
100
AcDbEntity
  8
M0
100
AcDbText
 10
63.870718
 20
41.978459
 40
2.707292
  1
）
 50
270.000001
 41
0.713333
  7
STANDARD
100
AcDbText
  0
TEXT
  5
168
100
AcDbEntity
  8
M0
100
AcDbText
 10
64.080712
 20
63.960269
 40
3.13344
  1
　
 41
0.645833
  7
STANDARD
100
AcDbText
  0
TEXT
  5
169
100
AcDbEntity
  8
M0
100
AcDbText
 10
64.080712
 20
59.704013
 40
3.13344
  1
　
 41
0.645833
  7
STANDARD
100
AcDbText
  0
TEXT
  5
16A
100
AcDbEntity
  8
M0
100
AcDbText
 10
64.080712
 20
55.447758
 40
3.13344
  1
現
 41
0.645833
  7
STANDARD
100
AcDbText
  0
TEXT
  5
16B
100
AcDbEntity
  8
M0
100
AcDbText
 10
64.080712
 20
51.191502
 40
3.13344
  1
地
 41
0.645833
  7
STANDARD
100
AcDbText
  0
TEXT
  5
16C
100
AcDbEntity
  8
M0
100
AcDbText
 10
64.080712
 20
46.935246
 40
3.13344
  1
工
 41
0.645833
  7
STANDARD
100
AcDbText
  0
TEXT
  5
16D
100
AcDbEntity
  8
M0
100
AcDbText
 10
64.080712
 20
42.67899
 40
3.13344
  1
事
 41
0.645833
  7
STANDARD
100
AcDbText
  0
TEXT
  5
16E
100
AcDbEntity
  8
M0
100
AcDbText
 10
64.080712
 20
38.422735
 40
3.13344
  1
　
 41
0.645833
  7
STANDARD
100
AcDbText
  0
TEXT
  5
16F
100
AcDbEntity
  8
M0
100
AcDbText
 10
63.500982
 20
60.817876
 40
2.707292
  1
（
 50
270.000001
 41
0.713333
  7
STANDARD
100
AcDbText
  0
LINE
  5
170
100
AcDbEntity
  8
M0
  6
CONTINUOUS
370
13
100
AcDbLine
 10
258.884409
 20
168.305921
 11
293.013272
 21
168.305921
  0
TEXT
  5
171
100
AcDbEntity
  8
M0
100
AcDbText
 10
259.350441
 20
168.612353
 40
3.06432
  1
ディップスイッチの設定
 41
0.833333
  7
STANDARD
100
AcDbText
  0
TEXT
  5
172
100
AcDbEntity
  8
M0
100
AcDbText
 10
207.323209
 20
96.233913
 40
2.9376
  1
ヒートポンプ側端子台
 41
0.694444
  7
STANDARD
100
AcDbText
  0
TEXT
  5
173
100
AcDbEntity
  8
M0
100
AcDbText
 10
169.472232
 20
79.859393
 40
2.9376
  1
ヒートポンプ用
 41
0.694444
  7
STANDARD
100
AcDbText
  0
TEXT
  5
174
100
AcDbEntity
  8
M0
100
AcDbText
 10
169.47223
 20
75.746753
 40
2.9376
  1
接続端子台
 41
0.694444
  7
STANDARD
100
AcDbText
  0
LINE
  5
175
100
AcDbEntity
  8
M0
  6
CONTINUOUS
370
13
100
AcDbLine
 10
258.884409
 20
113.78599
 11
268.498716
 21
113.78599
  0
TEXT
  5
176
100
AcDbEntity
  8
M0
100
AcDbText
 10
259.350441
 20
114.092422
 40
3.06432
  1
ＬＥＤ
 41
0.833333
  7
STANDARD
100
AcDbText
  0
TEXT
  5
177
100
AcDbEntity
  8
M0
100
AcDbText
 10
136.490947
 20
165.587033
 40
1.046643
  1
ＯＮ
 50
270.000001
 41
0.833334
  7
STANDARD
100
AcDbText
  0
LINE
  5
178
100
AcDbEntity
  8
M0
  6
CONTINUOUS
370
25
100
AcDbLine
 10
382.22619
 20
174.569519
 11
382.22619
 21
95.460387
  0
LINE
  5
179
100
AcDbEntity
  8
M0
  6
CONTINUOUS
370
13
100
AcDbLine
 10
128.877851
 20
169.13337
 11
137.774313
 21
169.13337
  0
LINE
  5
17A
100
AcDbEntity
  8
M0
  6
CONTINUOUS
370
13
100
AcDbLine
 10
134.8927
 20
165.465114
 11
131.124787
 21
165.465114
  0
LINE
  5
17B
100
AcDbEntity
  8
M0
  6
CONTINUOUS
370
13
100
AcDbLine
 10
137.718635
 20
166.305114
 11
128.822173
 21
166.305114
  0
LINE
  5
17C
100
AcDbEntity
  8
M0
  6
CONTINUOUS
370
13
100
AcDbLine
 10
137.774313
 20
178.343825
 11
137.774313
 21
169.13337
  0
LINE
  5
17D
100
AcDbEntity
  8
M0
  6
CONTINUOUS
370
13
100
AcDbLine
 10
128.877851
 20
178.343825
 11
128.877851
 21
169.13337
  0
LINE
  5
17E
100
AcDbEntity
  8
M0
  6
CONTINUOUS
370
13
100
AcDbLine
 10
68.685707
 20
131.139832
 11
68.685707
 21
135.348186
  0
LINE
  5
17F
100
AcDbEntity
  8
M0
  6
CONTINUOUS
370
13
100
AcDbLine
 10
78.344114
 20
92.620151
 11
78.344114
 21
131.796802
  0
LINE
  5
180
100
AcDbEntity
  8
M0
  6
CONTINUOUS
370
13
100
AcDbLine
 10
83.884166
 20
89.46267
 11
83.884166
 21
128.245418
  0
CIRCLE
  5
181
100
AcDbEntity
  8
M0
  6
CONTINUOUS
370
13
100
AcDbCircle
 10
153.463938
 20
177.467033
 40
1.166529
  0
TEXT
  5
182
100
AcDbEntity
  8
M0
100
AcDbText
 10
125.036378
 20
48.04468
 40
3.78
  1
※必ずヒートポンプ接続用端子台とヒートポンプ側端子台の色（極性）を合わせて
 41
0.648148
  7
STANDARD
100
AcDbText
  0
TEXT
  5
183
100
AcDbEntity
  8
M0
100
AcDbText
 10
125.036378
 20
42.752681
 40
3.78
  1
接続してください。間違って接続しますと、機器の故障の原因となります。
 41
0.648148
  7
STANDARD
100
AcDbText
  0
LINE
  5
184
100
AcDbEntity
  8
M0
  6
CONTINUOUS
370
13
100
AcDbLine
 10
125.022996
 20
227.479739
 11
125.022996
 21
233.049082
  0
LINE
  5
185
100
AcDbEntity
  8
M0
  6
CONTINUOUS
370
13
100
AcDbLine
 10
136.733833
 20
227.479463
 11
136.733833
 21
233.049082
  0
LINE
  5
186
100
AcDbEntity
  8
M0
  6
CONTINUOUS
370
13
 62
     7
100
AcDbLine
 10
138.2349
 20
228.214442
 11
138.2349
 21
221.897982
  0
LINE
  5
187
100
AcDbEntity
  8
M0
  6
CONTINUOUS
370
13
100
AcDbLine
 10
131.259087
 20
233.831188
 11
133.626169
 21
233.831188
  0
LINE
  5
188
100
AcDbEntity
  8
M0
  6
CONTINUOUS
370
13
100
AcDbLine
 10
134.408275
 20
227.479739
 11
134.408275
 21
233.049082
  0
LINE
  5
189
100
AcDbEntity
  8
M0
  6
CONTINUOUS
370
13
 62
     7
100
AcDbLine
 10
138.2349
 20
228.214442
 11
121.088861
 21
228.214442
  0
LINE
  5
18A
100
AcDbEntity
  8
M0
  6
CONTINUOUS
370
13
 62
     7
100
AcDbLine
 10
121.088861
 20
228.214442
 11
121.088861
 21
221.897982
  0
LINE
  5
18B
100
AcDbEntity
  8
M0
  6
CONTINUOUS
370
13
100
AcDbLine
 10
122.655914
 20
227.479463
 11
122.655914
 21
233.049082
  0
LINE
  5
18C
100
AcDbEntity
  8
M0
  6
CONTINUOUS
370
13
100
AcDbLine
 10
128.892005
 20
233.831188
 11
128.109899
 21
233.831188
  0
LINE
  5
18D
100
AcDbEntity
  8
M0
  6
CONTINUOUS
370
13
100
AcDbLine
 10
128.13066
 20
233.831188
 11
125.805102
 21
233.831188
  0
LINE
  5
18E
100
AcDbEntity
  8
M0
  6
CONTINUOUS
370
13
100
AcDbLine
 10
125.763579
 20
233.831188
 11
123.438021
 21
233.831188
  0
LINE
  5
18F
100
AcDbEntity
  8
M0
  6
CONTINUOUS
370
13
100
AcDbLine
 10
133.584645
 20
233.831188
 11
135.951727
 21
233.831188
  0
LINE
  5
190
100
AcDbEntity
  8
M0
  6
CONTINUOUS
370
13
100
AcDbLine
 10
127.327792
 20
227.478635
 11
127.327792
 21
233.049082
  0
LINE
  5
191
100
AcDbEntity
  8
M0
  6
CONTINUOUS
370
13
100
AcDbLine
 10
130.456218
 20
233.831188
 11
131.238325
 21
233.831188
  0
LINE
  5
192
100
AcDbEntity
  8
M0
  6
CONTINUOUS
370
13
100
AcDbLine
 10
158.505597
 20
214.663772
 11
158.505597
 21
253.970959
  0
LINE
  5
193
100
AcDbEntity
  8
M0
  6
CONTINUOUS
370
13
 62
     7
100
AcDbLine
 10
138.214138
 20
221.897982
 11
121.068099
 21
221.897982
  0
LINE
  5
194
100
AcDbEntity
  8
M0
  6
CONTINUOUS
370
13
100
AcDbLine
 10
125.763579
 20
216.607955
 11
123.438021
 21
216.607955
  0
LINE
  5
195
100
AcDbEntity
  8
M0
  6
CONTINUOUS
370
13
100
AcDbLine
 10
130.497742
 20
216.607955
 11
131.238325
 21
216.607955
  0
LINE
  5
196
100
AcDbEntity
  8
M0
  6
CONTINUOUS
370
13
100
AcDbLine
 10
133.584645
 20
216.607955
 11
135.951727
 21
216.607955
  0
LINE
  5
197
100
AcDbEntity
  8
M0
  6
CONTINUOUS
370
13
100
AcDbLine
 10
128.13066
 20
216.607955
 11
125.805102
 21
216.607955
  0
LINE
  5
198
100
AcDbEntity
  8
M0
  6
CONTINUOUS
370
13
100
AcDbLine
 10
131.259087
 20
216.607955
 11
133.626169
 21
216.607955
  0
LINE
  5
199
100
AcDbEntity
  8
M0
  6
CONTINUOUS
370
13
100
AcDbLine
 10
128.933529
 20
216.607955
 11
128.109899
 21
216.607955
  0
LINE
  5
19A
100
AcDbEntity
  8
M0
  6
CONTINUOUS
370
13
100
AcDbLine
 10
127.327792
 20
222.960508
 11
127.327792
 21
217.390061
  0
LINE
  5
19B
100
AcDbEntity
  8
M0
  6
CONTINUOUS
370
13
100
AcDbLine
 10
122.655914
 20
222.95968
 11
122.655914
 21
217.390061
  0
LINE
  5
19C
100
AcDbEntity
  8
M0
  6
CONTINUOUS
370
13
100
AcDbLine
 10
136.733833
 20
222.95968
 11
136.733833
 21
217.390061
  0
LINE
  5
19D
100
AcDbEntity
  8
M0
  6
CONTINUOUS
370
13
100
AcDbLine
 10
134.408275
 20
222.959404
 11
134.408275
 21
217.390061
  0
LINE
  5
19E
100
AcDbEntity
  8
M0
  6
CONTINUOUS
370
13
100
AcDbLine
 10
125.022996
 20
222.959404
 11
125.022996
 21
217.390061
  0
CIRCLE
  5
19F
100
AcDbEntity
  8
M0
  6
CONTINUOUS
370
13
100
AcDbCircle
 10
132.061955
 20
226.697632
 40
0.782107
  0
CIRCLE
  5
1A0
100
AcDbEntity
  8
M0
  6
CONTINUOUS
370
13
100
AcDbCircle
 10
129.715635
 20
226.697632
 40
0.782107
  0
CIRCLE
  5
1A1
100
AcDbEntity
  8
M0
  6
CONTINUOUS
370
13
100
AcDbCircle
 10
134.408275
 20
226.697632
 40
0.782107
  0
CIRCLE
  5
1A2
100
AcDbEntity
  8
M0
  6
CONTINUOUS
370
13
100
AcDbCircle
 10
136.754595
 20
226.697632
 40
0.782107
  0
CIRCLE
  5
1A3
100
AcDbEntity
  8
M0
  6
CONTINUOUS
370
13
100
AcDbCircle
 10
122.676676
 20
226.697632
 40
0.782107
  0
CIRCLE
  5
1A4
100
AcDbEntity
  8
M0
  6
CONTINUOUS
370
13
100
AcDbCircle
 10
127.369316
 20
226.697632
 40
0.782107
  0
CIRCLE
  5
1A5
100
AcDbEntity
  8
M0
  6
CONTINUOUS
370
13
100
AcDbCircle
 10
125.022996
 20
226.697632
 40
0.782107
  0
CIRCLE
  5
1A6
100
AcDbEntity
  8
M0
  6
CONTINUOUS
370
13
100
AcDbCircle
 10
158.505597
 20
256.598838
 40
2.627878
  0
CIRCLE
  5
1A7
100
AcDbEntity
  8
M0
  6
CONTINUOUS
370
13
100
AcDbCircle
 10
122.676676
 20
223.741511
 40
0.782107
  0
CIRCLE
  5
1A8
100
AcDbEntity
  8
M0
  6
CONTINUOUS
370
13
100
AcDbCircle
 10
136.754595
 20
223.741511
 40
0.782107
  0
CIRCLE
  5
1A9
100
AcDbEntity
  8
M0
  6
CONTINUOUS
370
13
100
AcDbCircle
 10
125.022996
 20
223.741511
 40
0.782107
  0
CIRCLE
  5
1AA
100
AcDbEntity
  8
M0
  6
CONTINUOUS
370
13
100
AcDbCircle
 10
127.369316
 20
223.741511
 40
0.782107
  0
CIRCLE
  5
1AB
100
AcDbEntity
  8
M0
  6
CONTINUOUS
370
13
100
AcDbCircle
 10
132.061955
 20
223.741511
 40
0.782107
  0
CIRCLE
  5
1AC
100
AcDbEntity
  8
M0
  6
CONTINUOUS
370
13
100
AcDbCircle
 10
134.408275
 20
223.741511
 40
0.782107
  0
CIRCLE
  5
1AD
100
AcDbEntity
  8
M0
  6
CONTINUOUS
370
13
100
AcDbCircle
 10
129.715635
 20
223.741511
 40
0.782107
  0
ARC
  5
1AE
100
AcDbEntity
  8
M0
  6
CONTINUOUS
370
13
100
AcDbCircle
 10
128.892005
 20
234.613295
 40
0.782107
100
AcDbArc
 50
-90.0
 51
0.0
  0
ARC
  5
1AF
100
AcDbEntity
  8
M0
  6
CONTINUOUS
370
13
100
AcDbCircle
 10
130.456218
 20
234.613295
 40
0.782107
100
AcDbArc
 50
180.0
 51
270.0
  0
ARC
  5
1B0
100
AcDbEntity
  8
M0
  6
CONTINUOUS
370
13
100
AcDbCircle
 10
125.805102
 20
233.049082
 40
0.782107
100
AcDbArc
 50
90.0
 51
180.0
  0
ARC
  5
1B1
100
AcDbEntity
  8
M0
  6
CONTINUOUS
370
13
100
AcDbCircle
 10
128.109899
 20
233.049082
 40
0.782107
100
AcDbArc
 50
90.0
 51
180.0
  0
ARC
  5
1B2
100
AcDbEntity
  8
M0
  6
CONTINUOUS
370
13
100
AcDbCircle
 10
135.951727
 20
233.049082
 40
0.782107
100
AcDbArc
 50
0.0
 51
90.0
  0
ARC
  5
1B3
100
AcDbEntity
  8
M0
  6
CONTINUOUS
370
13
100
AcDbCircle
 10
123.438021
 20
233.049082
 40
0.782107
100
AcDbArc
 50
90.0
 51
180.0
  0
ARC
  5
1B4
100
AcDbEntity
  8
M0
  6
CONTINUOUS
370
13
100
AcDbCircle
 10
133.626169
 20
233.049082
 40
0.782107
100
AcDbArc
 50
0.0
 51
90.0
  0
ARC
  5
1B5
100
AcDbEntity
  8
M0
  6
CONTINUOUS
370
13
100
AcDbCircle
 10
135.951727
 20
217.390061
 40
0.782107
100
AcDbArc
 50
-90.0
 51
0.0
  0
ARC
  5
1B6
100
AcDbEntity
  8
M0
  6
CONTINUOUS
370
13
100
AcDbCircle
 10
133.626169
 20
217.390061
 40
0.782107
100
AcDbArc
 50
-90.0
 51
0.0
  0
ARC
  5
1B7
100
AcDbEntity
  8
M0
  6
CONTINUOUS
370
13
100
AcDbCircle
 10
123.438021
 20
217.390061
 40
0.782107
100
AcDbArc
 50
180.0
 51
270.0
  0
ARC
  5
1B8
100
AcDbEntity
  8
M0
  6
CONTINUOUS
370
13
100
AcDbCircle
 10
128.933529
 20
215.825848
 40
0.782107
100
AcDbArc
 50
0.0
 51
90.0
  0
ARC
  5
1B9
100
AcDbEntity
  8
M0
  6
CONTINUOUS
370
13
100
AcDbCircle
 10
125.805102
 20
217.390061
 40
0.782107
100
AcDbArc
 50
180.0
 51
270.0
  0
ARC
  5
1BA
100
AcDbEntity
  8
M0
  6
CONTINUOUS
370
13
100
AcDbCircle
 10
128.109899
 20
217.390061
 40
0.782107
100
AcDbArc
 50
180.0
 51
270.0
  0
ARC
  5
1BB
100
AcDbEntity
  8
M0
  6
CONTINUOUS
370
13
100
AcDbCircle
 10
130.497742
 20
215.825848
 40
0.782107
100
AcDbArc
 50
90.0
 51
180.0
  0
TEXT
  5
1BC
100
AcDbEntity
  8
M0
100
AcDbText
 10
101.780487
 20
138.350081
 40
2.688492
  1
ＣＮ１
 50
270.000001
 41
0.643939
  7
STANDARD
100
AcDbText
  0
TEXT
  5
1BD
100
AcDbEntity
  8
M0
100
AcDbText
 10
118.308658
 20
212.663203
 40
2.688492
  1
ＣＮ２０
 41
0.643939
  7
STANDARD
100
AcDbText
  0
LINE
  5
1BE
100
AcDbEntity
  8
M0
  6
CONTINUOUS
370
13
 62
     7
100
AcDbLine
 10
286.176666
 20
141.069519
 11
378.15619
 21
141.069519
  0
LINE
  5
1BF
100
AcDbEntity
  8
M0
  6
CONTINUOUS
370
13
 62
     7
100
AcDbLine
 10
337.259597
 20
125.069519
 11
337.259597
 21
157.069519
  0
LINE
  5
1C0
100
AcDbEntity
  8
M0
  6
CONTINUOUS
370
13
 62
     7
100
AcDbLine
 10
286.176666
 20
149.069519
 11
378.15619
 21
149.069519
  0
LINE
  5
1C1
100
AcDbEntity
  8
M0
  6
CONTINUOUS
370
13
 62
     7
100
AcDbLine
 10
332.166428
 20
133.069519
 11
378.15619
 21
133.069519
  0
LINE
  5
1C2
100
AcDbEntity
  8
M0
  6
CONTINUOUS
370
13
 62
     7
100
AcDbLine
 10
337.259597
 20
129.069519
 11
378.15619
 21
129.069519
  0
LINE
  5
1C3
100
AcDbEntity
  8
M0
  6
CONTINUOUS
370
13
 62
     7
100
AcDbLine
 10
291.269835
 20
145.069519
 11
332.166428
 21
145.069519
  0
LINE
  5
1C4
100
AcDbEntity
  8
M0
  6
CONTINUOUS
370
13
 62
     7
100
AcDbLine
 10
356.419473
 20
139.069518
 11
364.454024
 21
139.069518
  0
LINE
  5
1C5
100
AcDbEntity
  8
M0
  6
CONTINUOUS
370
13
 62
     7
100
AcDbLine
 10
345.263148
 20
125.069519
 11
345.263148
 21
157.069519
  0
LINE
  5
1C6
100
AcDbEntity
  8
M0
  6
CONTINUOUS
370
13
 62
     7
100
AcDbLine
 10
356.419473
 20
131.069518
 11
364.454024
 21
131.069518
  0
LINE
  5
1C7
100
AcDbEntity
  8
M0
  6
CONTINUOUS
370
13
 62
     7
100
AcDbLine
 10
337.259597
 20
153.069519
 11
378.15619
 21
153.069519
  0
LINE
  5
1C8
100
AcDbEntity
  8
M0
  6
CONTINUOUS
370
13
 62
     7
100
AcDbLine
 10
286.176666
 20
125.069519
 11
378.15619
 21
125.069519
  0
LINE
  5
1C9
100
AcDbEntity
  8
M0
  6
CONTINUOUS
370
13
 62
     7
100
AcDbLine
 10
291.269835
 20
137.069519
 11
332.166428
 21
137.069519
  0
LINE
  5
1CA
100
AcDbEntity
  8
M0
  6
CONTINUOUS
370
13
 62
     7
100
AcDbLine
 10
291.269835
 20
125.069519
 11
291.269835
 21
157.069519
  0
LINE
  5
1CB
100
AcDbEntity
  8
M0
  6
CONTINUOUS
370
13
 62
     7
100
AcDbLine
 10
286.176666
 20
157.069519
 11
286.176666
 21
125.069519
  0
LINE
  5
1CC
100
AcDbEntity
  8
M0
  6
CONTINUOUS
370
13
 62
     7
100
AcDbLine
 10
286.176666
 20
133.069519
 11
332.166428
 21
133.069519
  0
LINE
  5
1CD
100
AcDbEntity
  8
M0
  6
CONTINUOUS
370
13
 62
     7
100
AcDbLine
 10
310.42971
 20
155.069518
 11
318.464262
 21
155.069518
  0
LINE
  5
1CE
100
AcDbEntity
  8
M0
  6
CONTINUOUS
370
13
 62
     7
100
AcDbLine
 10
291.269835
 20
153.069519
 11
332.166428
 21
153.069519
  0
LINE
  5
1CF
100
AcDbEntity
  8
M0
  6
CONTINUOUS
370
13
 62
     7
100
AcDbLine
 10
299.273385
 20
125.069519
 11
299.273385
 21
157.069519
  0
LINE
  5
1D0
100
AcDbEntity
  8
M0
  6
CONTINUOUS
370
13
 62
     7
100
AcDbLine
 10
378.15619
 20
157.069519
 11
378.15619
 21
125.069519
  0
LINE
  5
1D1
100
AcDbEntity
  8
M0
  6
CONTINUOUS
370
13
 62
     7
100
AcDbLine
 10
291.269835
 20
129.069519
 11
332.166428
 21
129.069519
  0
LINE
  5
1D2
100
AcDbEntity
  8
M0
  6
CONTINUOUS
370
13
 62
     7
100
AcDbLine
 10
286.176666
 20
157.069519
 11
378.15619
 21
157.069519
  0
LINE
  5
1D3
100
AcDbEntity
  8
M0
  6
CONTINUOUS
370
13
 62
     7
100
AcDbLine
 10
337.259597
 20
137.069519
 11
378.15619
 21
137.069519
  0
LINE
  5
1D4
100
AcDbEntity
  8
M0
  6
CONTINUOUS
370
13
 62
     7
100
AcDbLine
 10
337.259597
 20
145.069519
 11
378.15619
 21
145.069519
  0
LINE
  5
1D5
100
AcDbEntity
  8
M0
  6
CONTINUOUS
370
13
 62
     7
100
AcDbLine
 10
332.166428
 20
157.069519
 11
332.166428
 21
125.069519
  0
LINE
  5
1D6
100
AcDbEntity
  8
M0
  6
CONTINUOUS
370
13
 62
     7
100
AcDbLine
 10
356.419473
 20
155.069518
 11
364.454024
 21
155.069518
  0
LINE
  5
1D7
100
AcDbEntity
  8
M0
  6
CONTINUOUS
370
13
 62
     7
100
AcDbLine
 10
356.419473
 20
147.069518
 11
364.454024
 21
147.069518
  0
LINE
  5
1D8
100
AcDbEntity
  8
M0
  6
CONTINUOUS
370
13
 62
     7
100
AcDbLine
 10
310.42971
 20
147.069518
 11
318.464262
 21
147.069518
  0
LINE
  5
1D9
100
AcDbEntity
  8
M0
  6
CONTINUOUS
370
13
 62
     7
100
AcDbLine
 10
310.42971
 20
139.069518
 11
318.464262
 21
139.069518
  0
LINE
  5
1DA
100
AcDbEntity
  8
M0
  6
CONTINUOUS
370
13
 62
     7
100
AcDbLine
 10
310.42971
 20
131.069518
 11
318.464262
 21
131.069518
  0
TEXT
  5
1DB
100
AcDbEntity
  8
M0
 62
     7
100
AcDbText
 10
288.040183
 20
143.614333
 40
2.910382
  1
２
 41
0.625
  7
STANDARD
100
AcDbText
  0
TEXT
  5
1DC
100
AcDbEntity
  8
M0
 62
     7
100
AcDbText
 10
288.040183
 20
151.614333
 40
2.910382
  1
１
 41
0.625
  7
STANDARD
100
AcDbText
  0
TEXT
  5
1DD
100
AcDbEntity
  8
M0
 62
     7
100
AcDbText
 10
288.040183
 20
135.614333
 40
2.910382
  1
３
 41
0.625
  7
STANDARD
100
AcDbText
  0
TEXT
  5
1DE
100
AcDbEntity
  8
M0
 62
     7
100
AcDbText
 10
334.029944
 20
127.614333
 40
2.910382
  1
８
 41
0.625
  7
STANDARD
100
AcDbText
  0
TEXT
  5
1DF
100
AcDbEntity
  8
M0
 62
     7
100
AcDbText
 10
338.284491
 20
145.614318
 40
2.910382
  1
Ｏ　Ｎ
 41
0.625
  7
STANDARD
100
AcDbText
  0
TEXT
  5
1E0
100
AcDbEntity
  8
M0
 62
     7
100
AcDbText
 10
338.284491
 20
137.614318
 40
2.910382
  1
Ｏ　Ｎ
 41
0.625
  7
STANDARD
100
AcDbText
  0
TEXT
  5
1E1
100
AcDbEntity
  8
M0
 62
     7
100
AcDbText
 10
288.040183
 20
127.614318
 40
2.910382
  1
４
 41
0.625
  7
STANDARD
100
AcDbText
  0
TEXT
  5
1E2
100
AcDbEntity
  8
M0
 62
     7
100
AcDbText
 10
338.284491
 20
125.614333
 40
2.910382
  1
ＯＦＦ
 41
0.625
  7
STANDARD
100
AcDbText
  0
TEXT
  5
1E3
100
AcDbEntity
  8
M0
 62
     7
100
AcDbText
 10
338.284491
 20
149.614318
 40
2.910382
  1
ＯＦＦ
 41
0.625
  7
STANDARD
100
AcDbText
  0
TEXT
  5
1E4
100
AcDbEntity
  8
M0
 62
     7
100
AcDbText
 10
292.29473
 20
137.614333
 40
2.910382
  1
Ｏ　Ｎ
 41
0.625
  7
STANDARD
100
AcDbText
  0
TEXT
  5
1E5
100
AcDbEntity
  8
M0
 62
     7
100
AcDbText
 10
292.29473
 20
133.614318
 40
2.910382
  1
ＯＦＦ
 41
0.625
  7
STANDARD
100
AcDbText
  0
TEXT
  5
1E6
100
AcDbEntity
  8
M0
 62
     7
100
AcDbText
 10
334.029944
 20
135.614333
 40
2.910382
  1
７
 41
0.625
  7
STANDARD
100
AcDbText
  0
TEXT
  5
1E7
100
AcDbEntity
  8
M0
 62
     7
100
AcDbText
 10
334.029944
 20
143.614318
 40
2.910382
  1
６
 41
0.625
  7
STANDARD
100
AcDbText
  0
TEXT
  5
1E8
100
AcDbEntity
  8
M0
 62
     7
100
AcDbText
 10
334.029944
 20
151.614318
 40
2.910382
  1
５
 41
0.625
  7
STANDARD
100
AcDbText
  0
TEXT
  5
1E9
100
AcDbEntity
  8
M0
 62
     7
100
AcDbText
 10
338.284491
 20
153.614318
 40
2.910382
  1
Ｏ　Ｎ
 41
0.625
  7
STANDARD
100
AcDbText
  0
TEXT
  5
1EA
100
AcDbEntity
  8
M0
 62
     7
100
AcDbText
 10
292.29473
 20
125.614318
 40
2.910382
  1
ＯＦＦ
 41
0.625
  7
STANDARD
100
AcDbText
  0
TEXT
  5
1EB
100
AcDbEntity
  8
M0
 62
     7
100
AcDbText
 10
292.29473
 20
153.614333
 40
2.910382
  1
Ｏ　Ｎ
 41
0.625
  7
STANDARD
100
AcDbText
  0
TEXT
  5
1EC
100
AcDbEntity
  8
M0
 62
     7
100
AcDbText
 10
292.29473
 20
141.614318
 40
2.910382
  1
ＯＦＦ
 41
0.625
  7
STANDARD
100
AcDbText
  0
TEXT
  5
1ED
100
AcDbEntity
  8
M0
 62
     7
100
AcDbText
 10
292.29473
 20
149.614318
 40
2.910382
  1
ＯＦＦ
 41
0.625
  7
STANDARD
100
AcDbText
  0
TEXT
  5
1EE
100
AcDbEntity
  8
M0
 62
     7
100
AcDbText
 10
292.29473
 20
145.614333
 40
2.910382
  1
Ｏ　Ｎ
 41
0.625
  7
STANDARD
100
AcDbText
  0
TEXT
  5
1EF
100
AcDbEntity
  8
M0
 62
     7
100
AcDbText
 10
338.284491
 20
133.614333
 40
2.910382
  1
ＯＦＦ
 41
0.625
  7
STANDARD
100
AcDbText
  0
TEXT
  5
1F0
100
AcDbEntity
  8
M0
 62
     7
100
AcDbText
 10
338.284491
 20
129.614333
 40
2.910382
  1
Ｏ　Ｎ
 41
0.625
  7
STANDARD
100
AcDbText
  0
TEXT
  5
1F1
100
AcDbEntity
  8
M0
 62
     7
100
AcDbText
 10
292.29473
 20
129.614333
 40
2.910382
  1
Ｏ　Ｎ
 41
0.625
  7
STANDARD
100
AcDbText
  0
TEXT
  5
1F2
100
AcDbEntity
  8
M0
 62
     7
100
AcDbText
 10
338.284491
 20
141.614318
 40
2.910382
  1
ＯＦＦ
 41
0.625
  7
STANDARD
100
AcDbText
  0
TEXT
  5
1F3
100
AcDbEntity
  8
M0
 62
     7
100
AcDbText
 10
300.911386
 20
149.455916
 40
2.910382
  1
標準（出荷時）
 41
0.645833
  7
STANDARD
100
AcDbText
  0
TEXT
  5
1F4
100
AcDbEntity
  8
M0
 62
     7
100
AcDbText
 10
300.911386
 20
141.455916
 40
2.910382
  1
標準（出荷時）
 41
0.645833
  7
STANDARD
100
AcDbText
  0
TEXT
  5
1F5
100
AcDbEntity
  8
M0
 62
     7
100
AcDbText
 10
300.911386
 20
133.455916
 40
2.910382
  1
標準（出荷時）
 41
0.645833
  7
STANDARD
100
AcDbText
  0
TEXT
  5
1F6
100
AcDbEntity
  8
M0
 62
     7
100
AcDbText
 10
300.911386
 20
125.455916
 40
2.910382
  1
標準（出荷時）
 41
0.645833
  7
STANDARD
100
AcDbText
  0
TEXT
  5
1F7
100
AcDbEntity
  8
M0
 62
     7
100
AcDbText
 10
346.901147
 20
149.455916
 40
2.910382
  1
標準（出荷時）
 41
0.645833
  7
STANDARD
100
AcDbText
  0
TEXT
  5
1F8
100
AcDbEntity
  8
M0
 62
     7
100
AcDbText
 10
346.901147
 20
141.455916
 40
2.910382
  1
標準（出荷時）
 41
0.645833
  7
STANDARD
100
AcDbText
  0
TEXT
  5
1F9
100
AcDbEntity
  8
M0
 62
     7
100
AcDbText
 10
346.901147
 20
133.455916
 40
2.910382
  1
標準（出荷時）
 41
0.645833
  7
STANDARD
100
AcDbText
  0
TEXT
  5
1FA
100
AcDbEntity
  8
M0
 62
     7
100
AcDbText
 10
346.901147
 20
125.455916
 40
2.910382
  1
標準（出荷時）
 41
0.645833
  7
STANDARD
100
AcDbText
  0
TEXT
  5
1FB
100
AcDbEntity
  8
M0
 62
     7
100
AcDbText
 10
268.585249
 20
107.332251
 40
2.910382
  1
消灯：電源ＯＦＦ
 41
0.625
  7
STANDARD
100
AcDbText
  0
TEXT
  5
1FC
100
AcDbEntity
  8
M0
 62
     7
100
AcDbText
 10
268.585249
 20
103.332236
 40
2.910382
  1
点灯：電源ＯＮ（通電中）
 41
0.625
  7
STANDARD
100
AcDbText
  0
TEXT
  5
1FD
100
AcDbEntity
  8
M0
 62
     7
100
AcDbText
 10
268.585249
 20
99.332251
 40
2.910382
  1
点滅：おしらせ表示表示中
 41
0.625
  7
STANDARD
100
AcDbText
  0
LINE
  5
1FE
100
AcDbEntity
  8
M0
  6
CONTINUOUS
370
13
 62
     7
100
AcDbLine
 10
100.042818
 20
199.417368
 11
96.27893
 21
199.417368
  0
LINE
  5
1FF
100
AcDbEntity
  8
M0
  6
CONTINUOUS
370
13
 62
     7
100
AcDbLine
 10
100.042818
 20
189.507575
 11
96.27893
 21
189.507575
  0
LINE
  5
200
100
AcDbEntity
  8
M0
  6
CONTINUOUS
370
13
 62
     7
100
AcDbLine
 10
96.27893
 20
189.507575
 11
96.27893
 21
199.417368
  0
LINE
  5
201
100
AcDbEntity
  8
M0
  6
CONTINUOUS
370
13
 62
     7
100
AcDbLine
 10
100.042818
 20
189.507575
 11
100.042818
 21
199.417368
  0
LINE
  5
202
100
AcDbEntity
  8
M0
  6
CONTINUOUS
370
13
100
AcDbLine
 10
77.714778
 20
191.407368
 11
97.503904
 21
191.407368
  0
CIRCLE
  5
203
100
AcDbEntity
  8
M0
  6
CONTINUOUS
370
13
100
AcDbCircle
 10
98.160874
 20
194.462472
 40
0.65697
  0
CIRCLE
  5
204
100
AcDbEntity
  8
M0
  6
CONTINUOUS
370
13
100
AcDbCircle
 10
98.160874
 20
197.517576
 40
0.65697
  0
CIRCLE
  5
205
100
AcDbEntity
  8
M0
  6
CONTINUOUS
370
13
100
AcDbCircle
 10
98.160874
 20
191.407368
 40
0.65697
  0
TEXT
  5
206
100
AcDbEntity
  8
M0
100
AcDbText
 10
100.542625
 20
199.394736
 40
2.688492
  1
ＣＮ３０１
 50
270.000001
 41
0.643939
  7
STANDARD
100
AcDbText
  0
LINE
  5
207
100
AcDbEntity
  8
M0
  6
CONTINUOUS
370
13
 62
     7
100
AcDbLine
 10
149.386813
 20
124.892136
 11
156.993754
 21
124.892136
  0
LINE
  5
208
100
AcDbEntity
  8
M0
  6
CONTINUOUS
370
13
 62
     7
100
AcDbLine
 10
149.386813
 20
121.755563
 11
149.386813
 21
124.892136
  0
LINE
  5
209
100
AcDbEntity
  8
M0
  6
CONTINUOUS
370
13
 62
     7
100
AcDbLine
 10
156.993754
 20
121.755563
 11
156.993754
 21
124.892136
  0
LINE
  5
20A
100
AcDbEntity
  8
M0
  6
CONTINUOUS
370
13
100
AcDbLine
 10
151.430149
 20
122.512553
 11
151.430149
 21
86.303136
  0
LINE
  5
20B
100
AcDbEntity
  8
M0
  6
CONTINUOUS
370
13
 62
     7
100
AcDbLine
 10
149.386813
 20
121.755563
 11
156.993754
 21
121.755563
  0
LINE
  5
20C
100
AcDbEntity
  8
M0
  6
CONTINUOUS
370
13
 62
     7
100
AcDbLine
 10
96.27893
 20
172.346742
 11
100.042818
 21
172.346742
  0
LINE
  5
20D
100
AcDbEntity
  8
M0
  6
CONTINUOUS
370
13
 62
     7
100
AcDbLine
 10
100.042818
 20
172.346742
 11
100.042818
 21
154.189089
  0
LINE
  5
20E
100
AcDbEntity
  8
M0
  6
CONTINUOUS
370
13
 62
     7
100
AcDbLine
 10
96.27893
 20
172.346742
 11
96.27893
 21
154.189089
  0
LINE
  5
20F
100
AcDbEntity
  8
M0
  6
CONTINUOUS
370
13
 62
     7
100
AcDbLine
 10
100.042818
 20
154.189089
 11
96.27893
 21
154.189089
  0
CIRCLE
  5
210
100
AcDbEntity
  8
M0
  6
CONTINUOUS
370
13
100
AcDbCircle
 10
151.430149
 20
123.060028
 40
0.547475
  0
CIRCLE
  5
211
100
AcDbEntity
  8
M0
  6
CONTINUOUS
370
13
100
AcDbCircle
 10
97.844288
 20
168.897652
 40
0.65697
  0
CIRCLE
  5
212
100
AcDbEntity
  8
M0
  6
CONTINUOUS
370
13
100
AcDbCircle
 10
97.844288
 20
171.149547
 40
0.65697
  0
CIRCLE
  5
213
100
AcDbEntity
  8
M0
  6
CONTINUOUS
370
13
100
AcDbCircle
 10
97.844288
 20
164.393863
 40
0.65697
  0
CIRCLE
  5
214
100
AcDbEntity
  8
M0
  6
CONTINUOUS
370
13
100
AcDbCircle
 10
97.844288
 20
166.645758
 40
0.65697
  0
CIRCLE
  5
215
100
AcDbEntity
  8
M0
  6
CONTINUOUS
370
13
100
AcDbCircle
 10
155.233619
 20
123.060028
 40
0.547475
  0
CIRCLE
  5
216
100
AcDbEntity
  8
M0
  6
CONTINUOUS
370
13
100
AcDbCircle
 10
97.844288
 20
162.141968
 40
0.65697
  0
CIRCLE
  5
217
100
AcDbEntity
  8
M0
  6
CONTINUOUS
370
13
100
AcDbCircle
 10
97.844288
 20
159.890074
 40
0.65697
  0
CIRCLE
  5
218
100
AcDbEntity
  8
M0
  6
CONTINUOUS
370
13
100
AcDbCircle
 10
97.844288
 20
157.638179
 40
0.65697
  0
CIRCLE
  5
219
100
AcDbEntity
  8
M0
  6
CONTINUOUS
370
13
100
AcDbCircle
 10
97.844288
 20
155.386285
 40
0.65697
  0
TEXT
  5
21A
100
AcDbEntity
  8
M0
100
AcDbText
 10
150.152101
 20
124.892134
 40
2.688492
  1
ＣＮ６
 41
0.643939
  7
STANDARD
100
AcDbText
  0
TEXT
  5
21B
100
AcDbEntity
  8
M0
100
AcDbText
 10
100.764587
 20
168.737616
 40
2.688492
  1
ＣＮ３０２
 50
270.000001
 41
0.643939
  7
STANDARD
100
AcDbText
  0
LINE
  5
21C
100
AcDbEntity
  8
M0
  6
CONTINUOUS
370
13
 62
     7
100
AcDbLine
 10
276.799809
 20
121.417642
 11
276.799809
 21
136.624844
  0
LINE
  5
21D
100
AcDbEntity
  8
M0
  6
CONTINUOUS
370
13
 62
     7
100
AcDbLine
 10
263.922389
 20
127.692183
 11
263.922389
 21
125.534682
  0
LINE
  5
21E
100
AcDbEntity
  8
M0
  6
CONTINUOUS
370
13
 62
     7
100
AcDbLine
 10
273.47827
 20
125.068798
 11
273.47827
 21
131.043417
  0
LINE
  5
21F
100
AcDbEntity
  8
M0
  6
CONTINUOUS
370
13
 62
     7
100
AcDbLine
 10
270.159037
 20
131.043417
 11
272.150577
 21
131.043417
  0
LINE
  5
220
100
AcDbEntity
  8
M0
  6
CONTINUOUS
370
13
 62
     7
100
AcDbLine
 10
268.403353
 20
127.692183
 11
268.403353
 21
125.534682
  0
LINE
  5
221
100
AcDbEntity
  8
M0
  6
CONTINUOUS
370
13
 62
     7
100
AcDbLine
 10
267.241622
 20
125.534682
 11
268.403353
 21
125.534682
  0
LINE
  5
222
100
AcDbEntity
  8
M0
  6
CONTINUOUS
370
13
 62
     7
100
AcDbLine
 10
276.799809
 20
136.624844
 11
262.192879
 21
136.624844
  0
LINE
  5
223
100
AcDbEntity
  8
M0
  6
CONTINUOUS
370
13
 62
     7
100
AcDbLine
 10
267.241622
 20
127.692183
 11
267.241622
 21
125.534682
  0
LINE
  5
224
100
AcDbEntity
  8
M0
  6
CONTINUOUS
370
13
 62
     7
100
AcDbLine
 10
270.560855
 20
125.534682
 11
271.722586
 21
125.534682
  0
LINE
  5
225
100
AcDbEntity
  8
M0
  6
CONTINUOUS
370
13
 62
     7
100
AcDbLine
 10
270.560855
 20
127.692183
 11
271.722586
 21
127.692183
  0
LINE
  5
226
100
AcDbEntity
  8
M0
  6
CONTINUOUS
370
13
 62
     7
100
AcDbLine
 10
270.560855
 20
127.692183
 11
270.560855
 21
125.534682
  0
LINE
  5
227
100
AcDbEntity
  8
M0
  6
CONTINUOUS
370
13
 62
     7
100
AcDbLine
 10
271.722586
 20
127.692183
 11
271.722586
 21
125.534682
  0
LINE
  5
228
100
AcDbEntity
  8
M0
  6
CONTINUOUS
370
13
 62
     7
100
AcDbLine
 10
265.084121
 20
127.692183
 11
265.084121
 21
125.534682
  0
LINE
  5
229
100
AcDbEntity
  8
M0
  6
CONTINUOUS
370
13
 62
     7
100
AcDbLine
 10
267.241622
 20
127.692183
 11
268.403353
 21
127.692183
  0
LINE
  5
22A
100
AcDbEntity
  8
M0
  6
CONTINUOUS
370
13
 62
     7
100
AcDbLine
 10
268.831344
 20
125.068798
 11
268.831344
 21
131.043417
  0
LINE
  5
22B
100
AcDbEntity
  8
M0
  6
CONTINUOUS
370
13
 62
     7
100
AcDbLine
 10
262.192879
 20
121.417642
 11
276.799809
 21
121.417642
  0
LINE
  5
22C
100
AcDbEntity
  8
M0
  6
CONTINUOUS
370
13
 62
     7
100
AcDbLine
 10
263.520572
 20
125.068798
 11
265.512111
 21
125.068798
  0
LINE
  5
22D
100
AcDbEntity
  8
M0
  6
CONTINUOUS
370
13
 62
     7
100
AcDbLine
 10
272.150577
 20
125.068798
 11
272.150577
 21
131.043417
  0
LINE
  5
22E
100
AcDbEntity
  8
M0
  6
CONTINUOUS
370
13
 62
     7
100
AcDbLine
 10
266.839804
 20
125.068798
 11
266.839804
 21
131.043417
  0
LINE
  5
22F
100
AcDbEntity
  8
M0
  6
CONTINUOUS
370
13
 62
     7
100
AcDbLine
 10
273.47827
 20
128.056107
 11
275.469809
 21
128.056107
  0
LINE
  5
230
100
AcDbEntity
  8
M0
  6
CONTINUOUS
370
13
 62
     7
100
AcDbLine
 10
273.47827
 20
131.043417
 11
275.469809
 21
131.043417
  0
LINE
  5
231
100
AcDbEntity
  8
M0
  6
CONTINUOUS
370
13
 62
     7
100
AcDbLine
 10
270.159037
 20
125.068798
 11
270.159037
 21
131.043417
  0
LINE
  5
232
100
AcDbEntity
  8
M0
  6
CONTINUOUS
370
13
 62
     7
100
AcDbLine
 10
263.520572
 20
131.043417
 11
265.512111
 21
131.043417
  0
LINE
  5
233
100
AcDbEntity
  8
M0
  6
CONTINUOUS
370
13
 62
     7
100
AcDbLine
 10
262.192879
 20
136.624844
 11
262.192879
 21
121.417642
  0
LINE
  5
234
100
AcDbEntity
  8
M0
  6
CONTINUOUS
370
13
 62
     7
100
AcDbLine
 10
266.839804
 20
131.043417
 11
268.831344
 21
131.043417
  0
LINE
  5
235
100
AcDbEntity
  8
M0
  6
CONTINUOUS
370
13
 62
     7
100
AcDbLine
 10
263.922389
 20
127.692183
 11
265.084121
 21
127.692183
  0
LINE
  5
236
100
AcDbEntity
  8
M0
  6
CONTINUOUS
370
13
 62
     7
100
AcDbLine
 10
265.512111
 20
125.068798
 11
265.512111
 21
131.043417
  0
LINE
  5
237
100
AcDbEntity
  8
M0
  6
CONTINUOUS
370
13
 62
     7
100
AcDbLine
 10
275.469809
 20
125.068798
 11
275.469809
 21
131.043417
  0
LINE
  5
238
100
AcDbEntity
  8
M0
  6
CONTINUOUS
370
13
 62
     7
100
AcDbLine
 10
263.922389
 20
125.534682
 11
265.084121
 21
125.534682
  0
LINE
  5
239
100
AcDbEntity
  8
M0
  6
CONTINUOUS
370
13
 62
     7
100
AcDbLine
 10
263.520572
 20
125.068798
 11
263.520572
 21
131.043417
  0
LINE
  5
23A
100
AcDbEntity
  8
M0
  6
CONTINUOUS
370
13
 62
     7
100
AcDbLine
 10
270.159037
 20
125.068798
 11
272.150577
 21
125.068798
  0
LINE
  5
23B
100
AcDbEntity
  8
M0
  6
CONTINUOUS
370
13
 62
     7
100
AcDbLine
 10
273.47827
 20
125.068798
 11
275.469809
 21
125.068798
  0
LINE
  5
23C
100
AcDbEntity
  8
M0
  6
CONTINUOUS
370
13
 62
     7
100
AcDbLine
 10
266.839804
 20
125.068798
 11
268.831344
 21
125.068798
  0
LINE
  5
23D
100
AcDbEntity
  8
M0
  6
CONTINUOUS
370
13
 62
     7
100
AcDbLine
 10
270.159037
 20
128.056107
 11
272.150577
 21
128.056107
  0
LINE
  5
23E
100
AcDbEntity
  8
M0
  6
CONTINUOUS
370
13
 62
     7
100
AcDbLine
 10
266.827304
 20
128.050263
 11
268.818844
 21
128.050263
  0
LINE
  5
23F
100
AcDbEntity
  8
M0
  6
CONTINUOUS
370
13
 62
     7
100
AcDbLine
 10
263.520572
 20
128.056107
 11
265.512111
 21
128.056107
  0
LINE
  5
240
100
AcDbEntity
  8
M0
  6
CONTINUOUS
370
13
 62
     7
100
AcDbLine
 10
273.880087
 20
127.692183
 11
273.880087
 21
125.534682
  0
LINE
  5
241
100
AcDbEntity
  8
M0
  6
CONTINUOUS
370
13
 62
     7
100
AcDbLine
 10
275.041819
 20
127.692183
 11
275.041819
 21
125.534682
  0
LINE
  5
242
100
AcDbEntity
  8
M0
  6
CONTINUOUS
370
13
 62
     7
100
AcDbLine
 10
273.880087
 20
125.534682
 11
275.041819
 21
125.534682
  0
LINE
  5
243
100
AcDbEntity
  8
M0
  6
CONTINUOUS
370
13
 62
     7
100
AcDbLine
 10
273.880087
 20
127.692183
 11
275.041819
 21
127.692183
  0
TEXT
  5
244
100
AcDbEntity
  8
M0
 62
     7
100
AcDbText
 10
273.602168
 20
131.037574
 40
2.619344
  1
８
 41
0.645833
  7
STANDARD
100
AcDbText
  0
TEXT
  5
245
100
AcDbEntity
  8
M0
 62
     7
100
AcDbText
 10
263.709391
 20
131.01496
 40
2.619344
  1
５
 41
0.645833
  7
STANDARD
100
AcDbText
  0
TEXT
  5
246
100
AcDbEntity
  8
M0
 62
     7
100
AcDbText
 10
262.792811
 20
133.707557
 40
2.619344
  1
ＯＮ
 41
0.645833
  7
STANDARD
100
AcDbText
  0
TEXT
  5
247
100
AcDbEntity
  8
M0
 62
     7
100
AcDbText
 10
270.282939
 20
131.037574
 40
2.619344
  1
７
 41
0.645833
  7
STANDARD
100
AcDbText
  0
TEXT
  5
248
100
AcDbEntity
  8
M0
 62
     7
100
AcDbText
 10
266.963725
 20
131.037574
 40
2.619344
  1
６
 41
0.645833
  7
STANDARD
100
AcDbText
  0
TEXT
  5
249
100
AcDbEntity
  8
M0
 62
     7
100
AcDbText
 10
262.57036
 20
138.606833
 40
2.910382
  1
＜ＳＷ２＞
 41
0.645833
  7
STANDARD
100
AcDbText
  0
LINE
  5
24A
100
AcDbEntity
  8
M0
  6
CONTINUOUS
370
13
 62
     7
100
AcDbLine
 10
93.997786
 20
119.474418
 11
175.745988
 21
119.474418
  0
LINE
  5
24B
100
AcDbEntity
  8
M0
  6
CONTINUOUS
370
13
 62
     7
100
AcDbLine
 10
175.745988
 20
230.66937
 11
93.997786
 21
230.66937
  0
LINE
  5
24C
100
AcDbEntity
  8
M0
  6
CONTINUOUS
370
13
 62
     7
100
AcDbLine
 10
175.745988
 20
119.474418
 11
175.745988
 21
230.66937
  0
LINE
  5
24D
100
AcDbEntity
  8
M0
  6
CONTINUOUS
370
13
 62
     7
100
AcDbLine
 10
93.997786
 20
230.66937
 11
93.997786
 21
119.474418
  0
CIRCLE
  5
24E
100
AcDbEntity
  8
M0
  6
CONTINUOUS
370
13
 62
     7
100
AcDbCircle
 10
96.849216
 20
122.325849
 40
1.140572
  0
CIRCLE
  5
24F
100
AcDbEntity
  8
M0
  6
CONTINUOUS
370
13
 62
     7
100
AcDbCircle
 10
96.849216
 20
227.81794
 40
1.140572
  0
CIRCLE
  5
250
100
AcDbEntity
  8
M0
  6
CONTINUOUS
370
13
 62
     7
100
AcDbCircle
 10
172.894557
 20
227.81794
 40
1.140572
  0
LINE
  5
251
100
AcDbEntity
  8
M0
  6
CONTINUOUS
370
13
100
AcDbLine
 10
158.505597
 20
214.663772
 11
129.715635
 21
214.663772
  0
LINE
  5
252
100
AcDbEntity
  8
M0
  6
CONTINUOUS
370
13
100
AcDbLine
 10
129.715635
 20
222.959404
 11
129.715635
 21
214.663772
  0
LINE
  5
253
100
AcDbEntity
  8
M0
  6
CONTINUOUS
370
13
100
AcDbLine
 10
177.677883
 20
156.450484
 11
178.061108
 21
157.11425
  0
LINE
  5
254
100
AcDbEntity
  8
M0
  6
DIVIDE
370
13
100
AcDbLine
 10
177.677883
 20
155.530727
 11
182.27667
 21
155.530727
  0
LINE
  5
255
100
AcDbEntity
  8
M0
  6
CONTINUOUS
370
13
100
AcDbLine
 10
171.403063
 20
155.983614
 11
172.209988
 21
155.176689
  0
LINE
  5
256
100
AcDbEntity
  8
M0
  6
CONTINUOUS
370
13
100
AcDbLine
 10
172.209988
 20
155.176689
 11
184.57602
 21
155.176689
  0
LINE
  5
257
100
AcDbEntity
  8
M0
  6
CONTINUOUS
370
13
100
AcDbLine
 10
178.827558
 20
152.093271
 11
179.594008
 21
153.420802
  0
LINE
  5
258
100
AcDbEntity
  8
M0
  6
CONTINUOUS
370
13
100
AcDbLine
 10
177.677883
 20
152.757037
 11
178.061108
 21
153.420802
  0
LINE
  5
259
100
AcDbEntity
  8
M0
  6
CONTINUOUS
370
13
100
AcDbLine
 10
181.893358
 20
152.093271
 11
181.126908
 21
153.420802
  0
LINE
  5
25A
100
AcDbEntity
  8
M0
  6
CONTINUOUS
370
13
100
AcDbLine
 10
182.276583
 20
152.757037
 11
181.893358
 21
152.093271
  0
LINE
  5
25B
100
AcDbEntity
  8
M0
  6
CONTINUOUS
370
13
100
AcDbLine
 10
172.209988
 20
151.483241
 11
184.57602
 21
151.483241
  0
LINE
  5
25C
100
AcDbEntity
  8
M0
  6
DIVIDE
370
13
100
AcDbLine
 10
177.677883
 20
151.837279
 11
182.27667
 21
151.837279
  0
LINE
  5
25D
100
AcDbEntity
  8
M0
  6
CONTINUOUS
370
13
100
AcDbLine
 10
171.403063
 20
152.290166
 11
172.209988
 21
151.483241
  0
LINE
  5
25E
100
AcDbEntity
  8
M0
  6
CONTINUOUS
370
13
100
AcDbLine
 10
180.360458
 20
152.093271
 11
181.126908
 21
153.420802
  0
LINE
  5
25F
100
AcDbEntity
  8
M0
  6
CONTINUOUS
370
13
100
AcDbLine
 10
182.276583
 20
152.757037
 11
184.57602
 21
152.757037
  0
LINE
  5
260
100
AcDbEntity
  8
M0
  6
CONTINUOUS
370
13
100
AcDbLine
 10
178.827558
 20
152.093271
 11
178.061108
 21
153.420802
  0
LINE
  5
261
100
AcDbEntity
  8
M0
  6
CONTINUOUS
370
13
100
AcDbLine
 10
184.57602
 20
151.483241
 11
184.57602
 21
152.757037
  0
LINE
  5
262
100
AcDbEntity
  8
M0
  6
CONTINUOUS
370
13
100
AcDbLine
 10
173.817815
 20
152.754712
 11
177.677883
 21
152.757037
  0
LINE
  5
263
100
AcDbEntity
  8
M0
  6
CONTINUOUS
370
13
100
AcDbLine
 10
180.360458
 20
152.093271
 11
179.594008
 21
153.420802
  0
LINE
  5
264
100
AcDbEntity
  8
M0
  6
CONTINUOUS
370
13
 62
     7
100
AcDbLine
 10
169.373155
 20
142.890535
 11
174.7262
 21
142.890535
  0
LINE
  5
265
100
AcDbEntity
  8
M0
  6
DIVIDE
370
13
100
AcDbLine
 10
182.27667
 20
157.370242
 11
177.677883
 21
157.370242
  0
LINE
  5
266
100
AcDbEntity
  8
M0
  6
DIVIDE
370
13
100
AcDbLine
 10
182.27667
 20
153.676794
 11
177.677883
 21
153.676794
  0
LINE
  5
267
100
AcDbEntity
  8
M0
  6
CONTINUOUS
370
13
100
AcDbLine
 10
173.817815
 20
149.061264
 11
177.677883
 21
149.063589
  0
LINE
  5
268
100
AcDbEntity
  8
M0
  6
CONTINUOUS
370
13
100
AcDbLine
 10
180.360458
 20
148.399823
 11
179.594008
 21
149.727354
  0
LINE
  5
269
100
AcDbEntity
  8
M0
  6
CONTINUOUS
370
13
100
AcDbLine
 10
178.827558
 20
148.399823
 11
178.061108
 21
149.727354
  0
LINE
  5
26A
100
AcDbEntity
  8
M0
  6
CONTINUOUS
370
13
100
AcDbLine
 10
184.57602
 20
147.789793
 11
184.57602
 21
149.063589
  0
LINE
  5
26B
100
AcDbEntity
  8
M0
  6
DIVIDE
370
13
100
AcDbLine
 10
182.27667
 20
149.983346
 11
177.677883
 21
149.983346
  0
LINE
  5
26C
100
AcDbEntity
  8
M0
  6
CONTINUOUS
370
13
100
AcDbLine
 10
181.893358
 20
148.399823
 11
181.126908
 21
149.727354
  0
LINE
  5
26D
100
AcDbEntity
  8
M0
  6
CONTINUOUS
370
13
100
AcDbLine
 10
182.276583
 20
149.063589
 11
181.893358
 21
148.399823
  0
LINE
  5
26E
100
AcDbEntity
  8
M0
  6
CONTINUOUS
370
13
100
AcDbLine
 10
178.827558
 20
148.399823
 11
179.594008
 21
149.727354
  0
LINE
  5
26F
100
AcDbEntity
  8
M0
  6
CONTINUOUS
370
13
100
AcDbLine
 10
180.360458
 20
148.399823
 11
181.126908
 21
149.727354
  0
LINE
  5
270
100
AcDbEntity
  8
M0
  6
CONTINUOUS
370
13
100
AcDbLine
 10
182.276583
 20
149.063589
 11
184.57602
 21
149.063589
  0
LINE
  5
271
100
AcDbEntity
  8
M0
  6
CONTINUOUS
370
13
100
AcDbLine
 10
177.677883
 20
149.063589
 11
178.061108
 21
149.727354
  0
LINE
  5
272
100
AcDbEntity
  8
M0
  6
DIVIDE
370
13
100
AcDbLine
 10
177.677883
 20
148.143831
 11
182.27667
 21
148.143831
  0
LINE
  5
273
100
AcDbEntity
  8
M0
  6
CONTINUOUS
370
13
100
AcDbLine
 10
172.209988
 20
147.789793
 11
184.57602
 21
147.789793
  0
LINE
  5
274
100
AcDbEntity
  8
M0
  6
DIVIDE
370
13
100
AcDbLine
 10
177.677883
 20
144.450383
 11
182.27667
 21
144.450383
  0
LINE
  5
275
100
AcDbEntity
  8
M0
  6
CONTINUOUS
370
13
100
AcDbLine
 10
171.403063
 20
144.90327
 11
172.209988
 21
144.096345
  0
LINE
  5
276
100
AcDbEntity
  8
M0
  6
CONTINUOUS
370
13
100
AcDbLine
 10
178.827558
 20
144.706375
 11
179.594008
 21
146.033906
  0
LINE
  5
277
100
AcDbEntity
  8
M0
  6
CONTINUOUS
370
13
100
AcDbLine
 10
177.677883
 20
145.370141
 11
178.061108
 21
146.033906
  0
LINE
  5
278
100
AcDbEntity
  8
M0
  6
CONTINUOUS
370
13
100
AcDbLine
 10
172.209988
 20
144.096345
 11
184.57602
 21
144.096345
  0
LINE
  5
279
100
AcDbEntity
  8
M0
  6
DIVIDE
370
13
100
AcDbLine
 10
182.27667
 20
146.289898
 11
177.677883
 21
146.289898
  0
LINE
  5
27A
100
AcDbEntity
  8
M0
  6
CONTINUOUS
370
13
100
AcDbLine
 10
182.276583
 20
145.370141
 11
181.893358
 21
144.706375
  0
LINE
  5
27B
100
AcDbEntity
  8
M0
  6
CONTINUOUS
370
13
100
AcDbLine
 10
182.276583
 20
145.370141
 11
184.57602
 21
145.370141
  0
LINE
  5
27C
100
AcDbEntity
  8
M0
  6
CONTINUOUS
370
13
100
AcDbLine
 10
173.817815
 20
145.367816
 11
177.677883
 21
145.370141
  0
LINE
  5
27D
100
AcDbEntity
  8
M0
  6
CONTINUOUS
370
13
100
AcDbLine
 10
180.360458
 20
144.706375
 11
181.126908
 21
146.033906
  0
LINE
  5
27E
100
AcDbEntity
  8
M0
  6
CONTINUOUS
370
13
100
AcDbLine
 10
184.57602
 20
144.096345
 11
184.57602
 21
145.370141
  0
LINE
  5
27F
100
AcDbEntity
  8
M0
  6
CONTINUOUS
370
13
100
AcDbLine
 10
181.893358
 20
144.706375
 11
181.126908
 21
146.033906
  0
LINE
  5
280
100
AcDbEntity
  8
M0
  6
CONTINUOUS
370
13
100
AcDbLine
 10
180.360458
 20
144.706375
 11
179.594008
 21
146.033906
  0
LINE
  5
281
100
AcDbEntity
  8
M0
  6
CONTINUOUS
370
13
100
AcDbLine
 10
178.827558
 20
144.706375
 11
178.061108
 21
146.033906
  0
LINE
  5
282
100
AcDbEntity
  8
M0
  6
CONTINUOUS
370
13
100
AcDbLine
 10
171.403063
 20
148.596718
 11
172.209988
 21
147.789793
  0
CIRCLE
  5
283
100
AcDbEntity
  8
M0
  6
CONTINUOUS
370
13
100
AcDbCircle
 10
173.160841
 20
152.754712
 40
0.65697
  0
CIRCLE
  5
284
100
AcDbEntity
  8
M0
  6
CONTINUOUS
370
13
100
AcDbCircle
 10
170.938514
 20
152.754712
 40
0.65697
  0
CIRCLE
  5
285
100
AcDbEntity
  8
M0
  6
CONTINUOUS
370
13
100
AcDbCircle
 10
173.160841
 20
149.061264
 40
0.65697
  0
CIRCLE
  5
286
100
AcDbEntity
  8
M0
  6
CONTINUOUS
370
13
100
AcDbCircle
 10
170.938514
 20
145.367816
 40
0.65697
  0
CIRCLE
  5
287
100
AcDbEntity
  8
M0
  6
CONTINUOUS
370
13
100
AcDbCircle
 10
173.160841
 20
145.367816
 40
0.65697
  0
CIRCLE
  5
288
100
AcDbEntity
  8
M0
  6
CONTINUOUS
370
13
100
AcDbCircle
 10
170.938514
 20
149.061264
 40
0.65697
  0
ARC
  5
289
100
AcDbEntity
  8
M0
  6
DIVIDE
370
13
100
AcDbCircle
 10
182.27667
 20
156.450484
 40
0.919757
100
AcDbArc
 50
270.0
 51
450.0
  0
ARC
  5
28A
100
AcDbEntity
  8
M0
  6
DIVIDE
370
13
100
AcDbCircle
 10
177.677883
 20
156.450484
 40
0.919757
100
AcDbArc
 50
90.0
 51
270.0
  0
ARC
  5
28B
100
AcDbEntity
  8
M0
  6
DIVIDE
370
13
100
AcDbCircle
 10
182.27667
 20
152.757037
 40
0.919757
100
AcDbArc
 50
270.0
 51
450.0
  0
ARC
  5
28C
100
AcDbEntity
  8
M0
  6
DIVIDE
370
13
100
AcDbCircle
 10
177.677883
 20
152.757037
 40
0.919757
100
AcDbArc
 50
90.0
 51
270.0
  0
ARC
  5
28D
100
AcDbEntity
  8
M0
  6
DIVIDE
370
13
100
AcDbCircle
 10
182.27667
 20
149.063589
 40
0.919757
100
AcDbArc
 50
270.0
 51
450.0
  0
ARC
  5
28E
100
AcDbEntity
  8
M0
  6
DIVIDE
370
13
100
AcDbCircle
 10
177.677883
 20
149.063589
 40
0.919757
100
AcDbArc
 50
90.0
 51
270.0
  0
ARC
  5
28F
100
AcDbEntity
  8
M0
  6
DIVIDE
370
13
100
AcDbCircle
 10
182.27667
 20
145.370141
 40
0.919757
100
AcDbArc
 50
270.0
 51
450.0
  0
ARC
  5
290
100
AcDbEntity
  8
M0
  6
DIVIDE
370
13
100
AcDbCircle
 10
177.677883
 20
145.370141
 40
0.919757
100
AcDbArc
 50
90.0
 51
270.0
  0
TEXT
  5
291
100
AcDbEntity
  8
M0
100
AcDbText
 10
185.954796
 20
161.8273
 40
3.666125
  1
タンクセンサ１（最頂部）
 41
0.694444
  7
STANDARD
100
AcDbText
  0
TEXT
  5
292
100
AcDbEntity
  8
M0
100
AcDbText
 10
185.954796
 20
154.440402
 40
3.666125
  1
タンクセンサ２（１２０Ｌ部）
 41
0.694444
  7
STANDARD
100
AcDbText
  0
TEXT
  5
293
100
AcDbEntity
  8
M0
100
AcDbText
 10
185.954796
 20
150.746955
 40
3.666125
  1
タンクセンサ３（２６０Ｌ部）
 41
0.694444
  7
STANDARD
100
AcDbText
  0
TEXT
  5
294
100
AcDbEntity
  8
M0
100
AcDbText
 10
185.954796
 20
147.053508
 40
3.666125
  1
タンクセンサ４（４００Ｌ部）
 41
0.694444
  7
STANDARD
100
AcDbText
  0
TEXT
  5
295
100
AcDbEntity
  8
M0
100
AcDbText
 10
185.954796
 20
143.360057
 40
3.666125
  1
タンクセンサ５（最下部）
 41
0.694444
  7
STANDARD
100
AcDbText
  0
CIRCLE
  5
296
100
AcDbEntity
  8
M0
  6
CONTINUOUS
370
13
100
AcDbCircle
 10
170.938514
 20
167.528504
 40
0.65697
  0
CIRCLE
  5
297
100
AcDbEntity
  8
M0
  6
CONTINUOUS
370
13
100
AcDbCircle
 10
173.160841
 20
167.528504
 40
0.65697
  0
CIRCLE
  5
298
100
AcDbEntity
  8
M0
  6
CONTINUOUS
370
13
100
AcDbCircle
 10
170.938514
 20
174.915399
 40
0.65697
  0
CIRCLE
  5
299
100
AcDbEntity
  8
M0
  6
CONTINUOUS
370
13
100
AcDbCircle
 10
173.160841
 20
174.915399
 40
0.65697
  0
TEXT
  5
29A
100
AcDbEntity
  8
M0
100
AcDbText
 10
185.954796
 20
169.214198
 40
3.666125
  1
給湯温度センサ
 41
0.694444
  7
STANDARD
100
AcDbText
  0
TEXT
  5
29B
100
AcDbEntity
  8
M0
100
AcDbText
 10
185.954796
 20
158.133849
 40
3.666125
  1
水温度センサ
 41
0.694444
  7
STANDARD
100
AcDbText
  0
LINE
  5
29C
100
AcDbEntity
  8
M0
  6
CONTINUOUS
370
13
 62
     7
100
AcDbLine
 10
174.7262
 20
142.890535
 11
174.7262
 21
177.39268
  0
LINE
  5
29D
100
AcDbEntity
  8
M0
  6
CONTINUOUS
370
13
 62
     7
100
AcDbLine
 10
169.373155
 20
177.39268
 11
169.373155
 21
142.890535
  0
LINE
  5
29E
100
AcDbEntity
  8
M0
  6
CONTINUOUS
370
13
100
AcDbLine
 10
172.209988
 20
162.563585
 11
184.57602
 21
162.563585
  0
LINE
  5
29F
100
AcDbEntity
  8
M0
  6
CONTINUOUS
370
13
100
AcDbLine
 10
171.403063
 20
163.37051
 11
172.209988
 21
162.563585
  0
LINE
  5
2A0
100
AcDbEntity
  8
M0
  6
CONTINUOUS
370
13
100
AcDbLine
 10
181.893358
 20
163.173615
 11
181.126908
 21
164.501146
  0
LINE
  5
2A1
100
AcDbEntity
  8
M0
  6
CONTINUOUS
370
13
100
AcDbLine
 10
184.57602
 20
162.563585
 11
184.57602
 21
163.83738
  0
LINE
  5
2A2
100
AcDbEntity
  8
M0
  6
DIVIDE
370
13
100
AcDbLine
 10
182.27667
 20
164.757138
 11
177.677883
 21
164.757138
  0
LINE
  5
2A3
100
AcDbEntity
  8
M0
  6
CONTINUOUS
370
13
100
AcDbLine
 10
182.276583
 20
163.83738
 11
181.893358
 21
163.173615
  0
LINE
  5
2A4
100
AcDbEntity
  8
M0
  6
CONTINUOUS
370
13
100
AcDbLine
 10
177.677883
 20
163.83738
 11
178.061108
 21
164.501146
  0
LINE
  5
2A5
100
AcDbEntity
  8
M0
  6
CONTINUOUS
370
13
100
AcDbLine
 10
178.827558
 20
163.173615
 11
179.594008
 21
164.501146
  0
LINE
  5
2A6
100
AcDbEntity
  8
M0
  6
CONTINUOUS
370
13
100
AcDbLine
 10
182.276583
 20
163.83738
 11
184.57602
 21
163.83738
  0
LINE
  5
2A7
100
AcDbEntity
  8
M0
  6
CONTINUOUS
370
13
100
AcDbLine
 10
180.360458
 20
163.173615
 11
181.126908
 21
164.501146
  0
LINE
  5
2A8
100
AcDbEntity
  8
M0
  6
CONTINUOUS
370
13
100
AcDbLine
 10
173.817815
 20
163.835056
 11
177.677883
 21
163.83738
  0
LINE
  5
2A9
100
AcDbEntity
  8
M0
  6
CONTINUOUS
370
13
100
AcDbLine
 10
178.827558
 20
163.173615
 11
178.061108
 21
164.501146
  0
LINE
  5
2AA
100
AcDbEntity
  8
M0
  6
CONTINUOUS
370
13
100
AcDbLine
 10
180.360458
 20
163.173615
 11
179.594008
 21
164.501146
  0
LINE
  5
2AB
100
AcDbEntity
  8
M0
  6
DIVIDE
370
13
100
AcDbLine
 10
177.677883
 20
162.917623
 11
182.27667
 21
162.917623
  0
LINE
  5
2AC
100
AcDbEntity
  8
M0
  6
CONTINUOUS
370
13
100
AcDbLine
 10
172.209988
 20
158.870137
 11
184.57602
 21
158.870137
  0
LINE
  5
2AD
100
AcDbEntity
  8
M0
  6
CONTINUOUS
370
13
100
AcDbLine
 10
171.403063
 20
159.677062
 11
172.209988
 21
158.870137
  0
LINE
  5
2AE
100
AcDbEntity
  8
M0
  6
CONTINUOUS
370
13
100
AcDbLine
 10
181.893358
 20
159.480167
 11
181.126908
 21
160.807698
  0
LINE
  5
2AF
100
AcDbEntity
  8
M0
  6
CONTINUOUS
370
13
100
AcDbLine
 10
184.57602
 20
158.870137
 11
184.57602
 21
160.143932
  0
LINE
  5
2B0
100
AcDbEntity
  8
M0
  6
DIVIDE
370
13
100
AcDbLine
 10
182.27667
 20
161.06369
 11
177.677883
 21
161.06369
  0
LINE
  5
2B1
100
AcDbEntity
  8
M0
  6
CONTINUOUS
370
13
100
AcDbLine
 10
182.276583
 20
160.143932
 11
181.893358
 21
159.480167
  0
LINE
  5
2B2
100
AcDbEntity
  8
M0
  6
CONTINUOUS
370
13
100
AcDbLine
 10
177.677883
 20
160.143932
 11
178.061108
 21
160.807698
  0
LINE
  5
2B3
100
AcDbEntity
  8
M0
  6
CONTINUOUS
370
13
100
AcDbLine
 10
178.827558
 20
159.480167
 11
179.594008
 21
160.807698
  0
LINE
  5
2B4
100
AcDbEntity
  8
M0
  6
CONTINUOUS
370
13
100
AcDbLine
 10
182.276583
 20
160.143932
 11
184.57602
 21
160.143932
  0
LINE
  5
2B5
100
AcDbEntity
  8
M0
  6
CONTINUOUS
370
13
100
AcDbLine
 10
180.360458
 20
159.480167
 11
181.126908
 21
160.807698
  0
LINE
  5
2B6
100
AcDbEntity
  8
M0
  6
CONTINUOUS
370
13
100
AcDbLine
 10
173.817815
 20
160.141608
 11
177.677883
 21
160.143932
  0
LINE
  5
2B7
100
AcDbEntity
  8
M0
  6
CONTINUOUS
370
13
100
AcDbLine
 10
178.827558
 20
159.480167
 11
178.061108
 21
160.807698
  0
LINE
  5
2B8
100
AcDbEntity
  8
M0
  6
CONTINUOUS
370
13
100
AcDbLine
 10
180.360458
 20
159.480167
 11
179.594008
 21
160.807698
  0
LINE
  5
2B9
100
AcDbEntity
  8
M0
  6
DIVIDE
370
13
100
AcDbLine
 10
177.677883
 20
159.224175
 11
182.27667
 21
159.224175
  0
LINE
  5
2BA
100
AcDbEntity
  8
M0
  6
CONTINUOUS
370
13
 62
     7
100
AcDbLine
 10
174.7262
 20
177.39268
 11
169.373155
 21
177.39268
  0
LINE
  5
2BB
100
AcDbEntity
  8
M0
  6
CONTINUOUS
370
13
100
AcDbLine
 10
184.57602
 20
169.950481
 11
184.57602
 21
171.224276
  0
LINE
  5
2BC
100
AcDbEntity
  8
M0
  6
CONTINUOUS
370
13
100
AcDbLine
 10
177.677883
 20
171.224276
 11
178.061108
 21
171.888042
  0
LINE
  5
2BD
100
AcDbEntity
  8
M0
  6
CONTINUOUS
370
13
100
AcDbLine
 10
178.827558
 20
170.560511
 11
179.594008
 21
171.888042
  0
LINE
  5
2BE
100
AcDbEntity
  8
M0
  6
DIVIDE
370
13
100
AcDbLine
 10
177.677883
 20
170.304519
 11
182.27667
 21
170.304519
  0
LINE
  5
2BF
100
AcDbEntity
  8
M0
  6
CONTINUOUS
370
13
100
AcDbLine
 10
182.276583
 20
171.224276
 11
184.57602
 21
171.224276
  0
LINE
  5
2C0
100
AcDbEntity
  8
M0
  6
CONTINUOUS
370
13
100
AcDbLine
 10
180.360458
 20
170.560511
 11
181.126908
 21
171.888042
  0
LINE
  5
2C1
100
AcDbEntity
  8
M0
  6
CONTINUOUS
370
13
100
AcDbLine
 10
178.827558
 20
170.560511
 11
178.061108
 21
171.888042
  0
LINE
  5
2C2
100
AcDbEntity
  8
M0
  6
CONTINUOUS
370
13
100
AcDbLine
 10
182.276583
 20
171.224276
 11
181.893358
 21
170.560511
  0
LINE
  5
2C3
100
AcDbEntity
  8
M0
  6
CONTINUOUS
370
13
100
AcDbLine
 10
181.893358
 20
170.560511
 11
181.126908
 21
171.888042
  0
LINE
  5
2C4
100
AcDbEntity
  8
M0
  6
CONTINUOUS
370
13
100
AcDbLine
 10
180.360458
 20
170.560511
 11
179.594008
 21
171.888042
  0
LINE
  5
2C5
100
AcDbEntity
  8
M0
  6
DIVIDE
370
13
100
AcDbLine
 10
182.27667
 20
172.144034
 11
177.677883
 21
172.144034
  0
LINE
  5
2C6
100
AcDbEntity
  8
M0
  6
CONTINUOUS
370
13
100
AcDbLine
 10
172.209988
 20
169.950481
 11
184.57602
 21
169.950481
  0
LINE
  5
2C7
100
AcDbEntity
  8
M0
  6
CONTINUOUS
370
13
100
AcDbLine
 10
173.817815
 20
171.221951
 11
177.677883
 21
171.224276
  0
LINE
  5
2C8
100
AcDbEntity
  8
M0
  6
CONTINUOUS
370
13
100
AcDbLine
 10
171.403063
 20
170.757406
 11
172.209988
 21
169.950481
  0
LINE
  5
2C9
100
AcDbEntity
  8
M0
  6
CONTINUOUS
370
13
100
AcDbLine
 10
180.360458
 20
155.786719
 11
181.126908
 21
157.11425
  0
LINE
  5
2CA
100
AcDbEntity
  8
M0
  6
CONTINUOUS
370
13
100
AcDbLine
 10
182.276583
 20
156.450484
 11
184.57602
 21
156.450484
  0
LINE
  5
2CB
100
AcDbEntity
  8
M0
  6
CONTINUOUS
370
13
100
AcDbLine
 10
173.817815
 20
156.44816
 11
177.677883
 21
156.450484
  0
LINE
  5
2CC
100
AcDbEntity
  8
M0
  6
CONTINUOUS
370
13
100
AcDbLine
 10
180.360458
 20
155.786719
 11
179.594008
 21
157.11425
  0
LINE
  5
2CD
100
AcDbEntity
  8
M0
  6
CONTINUOUS
370
13
100
AcDbLine
 10
178.827558
 20
155.786719
 11
178.061108
 21
157.11425
  0
LINE
  5
2CE
100
AcDbEntity
  8
M0
  6
CONTINUOUS
370
13
100
AcDbLine
 10
184.57602
 20
155.176689
 11
184.57602
 21
156.450484
  0
LINE
  5
2CF
100
AcDbEntity
  8
M0
  6
CONTINUOUS
370
13
100
AcDbLine
 10
181.893358
 20
155.786719
 11
181.126908
 21
157.11425
  0
LINE
  5
2D0
100
AcDbEntity
  8
M0
  6
CONTINUOUS
370
13
100
AcDbLine
 10
182.276583
 20
156.450484
 11
181.893358
 21
155.786719
  0
LINE
  5
2D1
100
AcDbEntity
  8
M0
  6
CONTINUOUS
370
13
100
AcDbLine
 10
178.827558
 20
155.786719
 11
179.594008
 21
157.11425
  0
CIRCLE
  5
2D2
100
AcDbEntity
  8
M0
  6
CONTINUOUS
370
13
100
AcDbCircle
 10
173.160841
 20
171.221951
 40
0.65697
  0
CIRCLE
  5
2D3
100
AcDbEntity
  8
M0
  6
CONTINUOUS
370
13
100
AcDbCircle
 10
170.938514
 20
171.221951
 40
0.65697
  0
CIRCLE
  5
2D4
100
AcDbEntity
  8
M0
  6
CONTINUOUS
370
13
100
AcDbCircle
 10
173.160841
 20
163.835056
 40
0.65697
  0
CIRCLE
  5
2D5
100
AcDbEntity
  8
M0
  6
CONTINUOUS
370
13
100
AcDbCircle
 10
170.938514
 20
163.835056
 40
0.65697
  0
CIRCLE
  5
2D6
100
AcDbEntity
  8
M0
  6
CONTINUOUS
370
13
100
AcDbCircle
 10
173.160841
 20
160.141608
 40
0.65697
  0
CIRCLE
  5
2D7
100
AcDbEntity
  8
M0
  6
CONTINUOUS
370
13
100
AcDbCircle
 10
170.938514
 20
160.141608
 40
0.65697
  0
CIRCLE
  5
2D8
100
AcDbEntity
  8
M0
  6
CONTINUOUS
370
13
100
AcDbCircle
 10
173.160841
 20
156.44816
 40
0.65697
  0
CIRCLE
  5
2D9
100
AcDbEntity
  8
M0
  6
CONTINUOUS
370
13
100
AcDbCircle
 10
170.938514
 20
156.44816
 40
0.65697
  0
ARC
  5
2DA
100
AcDbEntity
  8
M0
  6
DIVIDE
370
13
100
AcDbCircle
 10
182.27667
 20
163.83738
 40
0.919757
100
AcDbArc
 50
270.0
 51
450.0
  0
ARC
  5
2DB
100
AcDbEntity
  8
M0
  6
DIVIDE
370
13
100
AcDbCircle
 10
177.677883
 20
163.83738
 40
0.919757
100
AcDbArc
 50
90.0
 51
270.0
  0
ARC
  5
2DC
100
AcDbEntity
  8
M0
  6
DIVIDE
370
13
100
AcDbCircle
 10
182.27667
 20
160.143932
 40
0.919757
100
AcDbArc
 50
270.0
 51
450.0
  0
ARC
  5
2DD
100
AcDbEntity
  8
M0
  6
DIVIDE
370
13
100
AcDbCircle
 10
177.677883
 20
160.143932
 40
0.919757
100
AcDbArc
 50
90.0
 51
270.0
  0
ARC
  5
2DE
100
AcDbEntity
  8
M0
  6
DIVIDE
370
13
100
AcDbCircle
 10
177.677883
 20
171.224276
 40
0.919757
100
AcDbArc
 50
90.0
 51
270.0
  0
ARC
  5
2DF
100
AcDbEntity
  8
M0
  6
DIVIDE
370
13
100
AcDbCircle
 10
182.27667
 20
171.224276
 40
0.919757
100
AcDbArc
 50
270.0
 51
450.0
  0
TEXT
  5
2E0
100
AcDbEntity
  8
M0
100
AcDbText
 10
169.373155
 20
156.015021
 40
2.688492
  1
ＣＮ１１
 50
90.000003
 41
0.643939
  7
STANDARD
100
AcDbText
  0
LINE
  5
2E1
100
AcDbEntity
  8
M0
  6
CONTINUOUS
370
13
 62
     7
100
AcDbLine
 10
276.799809
 20
145.456914
 11
276.799809
 21
160.664116
  0
LINE
  5
2E2
100
AcDbEntity
  8
M0
  6
CONTINUOUS
370
13
 62
     7
100
AcDbLine
 10
263.922389
 20
151.731456
 11
263.922389
 21
149.573954
  0
LINE
  5
2E3
100
AcDbEntity
  8
M0
  6
CONTINUOUS
370
13
 62
     7
100
AcDbLine
 10
273.47827
 20
149.10807
 11
273.47827
 21
155.082689
  0
LINE
  5
2E4
100
AcDbEntity
  8
M0
  6
CONTINUOUS
370
13
 62
     7
100
AcDbLine
 10
270.159037
 20
155.082689
 11
272.150577
 21
155.082689
  0
LINE
  5
2E5
100
AcDbEntity
  8
M0
  6
CONTINUOUS
370
13
 62
     7
100
AcDbLine
 10
268.403353
 20
151.731456
 11
268.403353
 21
149.573954
  0
LINE
  5
2E6
100
AcDbEntity
  8
M0
  6
CONTINUOUS
370
13
 62
     7
100
AcDbLine
 10
267.241622
 20
149.573954
 11
268.403353
 21
149.573954
  0
LINE
  5
2E7
100
AcDbEntity
  8
M0
  6
CONTINUOUS
370
13
 62
     7
100
AcDbLine
 10
276.799809
 20
160.664116
 11
262.192879
 21
160.664116
  0
LINE
  5
2E8
100
AcDbEntity
  8
M0
  6
CONTINUOUS
370
13
 62
     7
100
AcDbLine
 10
267.241622
 20
151.731456
 11
267.241622
 21
149.573954
  0
LINE
  5
2E9
100
AcDbEntity
  8
M0
  6
CONTINUOUS
370
13
 62
     7
100
AcDbLine
 10
270.560855
 20
149.573954
 11
271.722586
 21
149.573954
  0
LINE
  5
2EA
100
AcDbEntity
  8
M0
  6
CONTINUOUS
370
13
 62
     7
100
AcDbLine
 10
270.560855
 20
151.731456
 11
271.722586
 21
151.731456
  0
LINE
  5
2EB
100
AcDbEntity
  8
M0
  6
CONTINUOUS
370
13
 62
     7
100
AcDbLine
 10
270.560855
 20
151.731456
 11
270.560855
 21
149.573954
  0
LINE
  5
2EC
100
AcDbEntity
  8
M0
  6
CONTINUOUS
370
13
 62
     7
100
AcDbLine
 10
271.722586
 20
151.731456
 11
271.722586
 21
149.573954
  0
LINE
  5
2ED
100
AcDbEntity
  8
M0
  6
CONTINUOUS
370
13
 62
     7
100
AcDbLine
 10
265.084121
 20
151.731456
 11
265.084121
 21
149.573954
  0
LINE
  5
2EE
100
AcDbEntity
  8
M0
  6
CONTINUOUS
370
13
 62
     7
100
AcDbLine
 10
267.241622
 20
151.731456
 11
268.403353
 21
151.731456
  0
LINE
  5
2EF
100
AcDbEntity
  8
M0
  6
CONTINUOUS
370
13
 62
     7
100
AcDbLine
 10
268.831344
 20
149.10807
 11
268.831344
 21
155.082689
  0
LINE
  5
2F0
100
AcDbEntity
  8
M0
  6
CONTINUOUS
370
13
 62
     7
100
AcDbLine
 10
262.192879
 20
145.456914
 11
276.799809
 21
145.456914
  0
LINE
  5
2F1
100
AcDbEntity
  8
M0
  6
CONTINUOUS
370
13
 62
     7
100
AcDbLine
 10
263.520572
 20
149.10807
 11
265.512111
 21
149.10807
  0
LINE
  5
2F2
100
AcDbEntity
  8
M0
  6
CONTINUOUS
370
13
 62
     7
100
AcDbLine
 10
272.150577
 20
149.10807
 11
272.150577
 21
155.082689
  0
LINE
  5
2F3
100
AcDbEntity
  8
M0
  6
CONTINUOUS
370
13
 62
     7
100
AcDbLine
 10
266.839804
 20
149.10807
 11
266.839804
 21
155.082689
  0
LINE
  5
2F4
100
AcDbEntity
  8
M0
  6
CONTINUOUS
370
13
 62
     7
100
AcDbLine
 10
273.47827
 20
152.095379
 11
275.469809
 21
152.095379
  0
LINE
  5
2F5
100
AcDbEntity
  8
M0
  6
CONTINUOUS
370
13
 62
     7
100
AcDbLine
 10
273.47827
 20
155.082689
 11
275.469809
 21
155.082689
  0
LINE
  5
2F6
100
AcDbEntity
  8
M0
  6
CONTINUOUS
370
13
 62
     7
100
AcDbLine
 10
270.159037
 20
149.10807
 11
270.159037
 21
155.082689
  0
LINE
  5
2F7
100
AcDbEntity
  8
M0
  6
CONTINUOUS
370
13
 62
     7
100
AcDbLine
 10
263.520572
 20
155.082689
 11
265.512111
 21
155.082689
  0
LINE
  5
2F8
100
AcDbEntity
  8
M0
  6
CONTINUOUS
370
13
 62
     7
100
AcDbLine
 10
262.192879
 20
160.664116
 11
262.192879
 21
145.456914
  0
LINE
  5
2F9
100
AcDbEntity
  8
M0
  6
CONTINUOUS
370
13
 62
     7
100
AcDbLine
 10
266.839804
 20
155.082689
 11
268.831344
 21
155.082689
  0
LINE
  5
2FA
100
AcDbEntity
  8
M0
  6
CONTINUOUS
370
13
 62
     7
100
AcDbLine
 10
263.922389
 20
151.731456
 11
265.084121
 21
151.731456
  0
LINE
  5
2FB
100
AcDbEntity
  8
M0
  6
CONTINUOUS
370
13
 62
     7
100
AcDbLine
 10
265.512111
 20
149.10807
 11
265.512111
 21
155.082689
  0
LINE
  5
2FC
100
AcDbEntity
  8
M0
  6
CONTINUOUS
370
13
 62
     7
100
AcDbLine
 10
275.469809
 20
149.10807
 11
275.469809
 21
155.082689
  0
LINE
  5
2FD
100
AcDbEntity
  8
M0
  6
CONTINUOUS
370
13
 62
     7
100
AcDbLine
 10
263.922389
 20
149.573954
 11
265.084121
 21
149.573954
  0
LINE
  5
2FE
100
AcDbEntity
  8
M0
  6
CONTINUOUS
370
13
 62
     7
100
AcDbLine
 10
263.520572
 20
149.10807
 11
263.520572
 21
155.082689
  0
LINE
  5
2FF
100
AcDbEntity
  8
M0
  6
CONTINUOUS
370
13
 62
     7
100
AcDbLine
 10
270.159037
 20
149.10807
 11
272.150577
 21
149.10807
  0
LINE
  5
300
100
AcDbEntity
  8
M0
  6
CONTINUOUS
370
13
 62
     7
100
AcDbLine
 10
273.47827
 20
149.10807
 11
275.469809
 21
149.10807
  0
LINE
  5
301
100
AcDbEntity
  8
M0
  6
CONTINUOUS
370
13
 62
     7
100
AcDbLine
 10
266.839804
 20
149.10807
 11
268.831344
 21
149.10807
  0
LINE
  5
302
100
AcDbEntity
  8
M0
  6
CONTINUOUS
370
13
 62
     7
100
AcDbLine
 10
273.880087
 20
151.731456
 11
273.880087
 21
149.573954
  0
LINE
  5
303
100
AcDbEntity
  8
M0
  6
CONTINUOUS
370
13
 62
     7
100
AcDbLine
 10
275.041819
 20
151.731456
 11
275.041819
 21
149.573954
  0
LINE
  5
304
100
AcDbEntity
  8
M0
  6
CONTINUOUS
370
13
 62
     7
100
AcDbLine
 10
273.880087
 20
149.573954
 11
275.041819
 21
149.573954
  0
LINE
  5
305
100
AcDbEntity
  8
M0
  6
CONTINUOUS
370
13
 62
     7
100
AcDbLine
 10
273.880087
 20
151.731456
 11
275.041819
 21
151.731456
  0
LINE
  5
306
100
AcDbEntity
  8
M0
  6
CONTINUOUS
370
13
 62
     7
100
AcDbLine
 10
270.159037
 20
152.095379
 11
272.150577
 21
152.095379
  0
LINE
  5
307
100
AcDbEntity
  8
M0
  6
CONTINUOUS
370
13
 62
     7
100
AcDbLine
 10
266.827304
 20
152.089536
 11
268.818844
 21
152.089536
  0
LINE
  5
308
100
AcDbEntity
  8
M0
  6
CONTINUOUS
370
13
 62
     7
100
AcDbLine
 10
263.520572
 20
152.095379
 11
265.512111
 21
152.095379
  0
TEXT
  5
309
100
AcDbEntity
  8
M0
 62
     7
100
AcDbText
 10
273.602168
 20
155.076846
 40
2.619344
  1
４
 41
0.645833
  7
STANDARD
100
AcDbText
  0
TEXT
  5
30A
100
AcDbEntity
  8
M0
 62
     7
100
AcDbText
 10
263.709391
 20
155.054232
 40
2.619344
  1
１
 41
0.645833
  7
STANDARD
100
AcDbText
  0
TEXT
  5
30B
100
AcDbEntity
  8
M0
 62
     7
100
AcDbText
 10
262.792811
 20
157.746829
 40
2.619344
  1
ＯＮ
 41
0.645833
  7
STANDARD
100
AcDbText
  0
TEXT
  5
30C
100
AcDbEntity
  8
M0
 62
     7
100
AcDbText
 10
270.282939
 20
155.076846
 40
2.619344
  1
３
 41
0.645833
  7
STANDARD
100
AcDbText
  0
TEXT
  5
30D
100
AcDbEntity
  8
M0
 62
     7
100
AcDbText
 10
262.57036
 20
162.646106
 40
2.910382
  1
＜ＳＷ１＞
 41
0.645833
  7
STANDARD
100
AcDbText
  0
TEXT
  5
30E
100
AcDbEntity
  8
M0
 62
     7
100
AcDbText
 10
266.963725
 20
155.076846
 40
2.619344
  1
２
 41
0.645833
  7
STANDARD
100
AcDbText
  0
TEXT
  5
30F
100
AcDbEntity
  8
M0
100
AcDbText
 10
138.591003
 20
164.875319
 40
2.912533
  1
ＳＷ２
 50
270.000001
 41
0.643939
  7
STANDARD
100
AcDbText
  0
TEXT
  5
310
100
AcDbEntity
  8
M0
100
AcDbText
 10
138.591003
 20
176.817306
 40
2.912533
  1
ＳＷ１
 50
270.000001
 41
0.643939
  7
STANDARD
100
AcDbText
  0
TEXT
  5
311
100
AcDbEntity
  8
M0
100
AcDbText
 10
148.193226
 20
180.683173
 40
2.912533
  1
ＬＥＤ
 50
270.000001
 41
0.643939
  7
STANDARD
100
AcDbText
  0
LINE
  5
312
100
AcDbEntity
  8
M0
  6
CONTINUOUS
370
13
 62
     7
100
AcDbLine
 10
96.27893
 20
126.602994
 11
101.411505
 21
126.602994
  0
LINE
  5
313
100
AcDbEntity
  8
M0
  6
CONTINUOUS
370
13
100
AcDbLine
 10
98.188248
 20
135.348186
 11
68.685707
 21
135.348186
  0
LINE
  5
314
100
AcDbEntity
  8
M0
  6
CONTINUOUS
370
13
 62
     7
100
AcDbLine
 10
96.27893
 20
145.111483
 11
96.27893
 21
126.602994
  0
LINE
  5
315
100
AcDbEntity
  8
M0
  6
CONTINUOUS
370
13
 62
     7
100
AcDbLine
 10
101.411505
 20
126.602994
 11
101.411505
 21
145.111483
  0
LINE
  5
316
100
AcDbEntity
  8
M0
  6
CONTINUOUS
370
13
 62
     7
100
AcDbLine
 10
96.27893
 20
145.111483
 11
101.411505
 21
145.111483
  0
LINE
  5
317
100
AcDbEntity
  8
M0
  6
CONTINUOUS
370
13
100
AcDbLine
 10
68.685707
 20
131.139832
 11
67.804272
 21
129.376964
  0
LINE
  5
318
100
AcDbEntity
  8
M0
  6
CONTINUOUS
370
13
100
AcDbLine
 10
65.15997
 20
131.139832
 11
72.211443
 21
131.139832
  0
LINE
  5
319
100
AcDbEntity
  8
M0
  6
CONTINUOUS
370
13
100
AcDbLine
 10
70.448575
 20
131.139832
 11
69.567141
 21
129.376964
  0
LINE
  5
31A
100
AcDbEntity
  8
M0
  6
CONTINUOUS
370
13
100
AcDbLine
 10
66.922838
 20
131.139832
 11
66.041404
 21
129.376964
  0
CIRCLE
  5
31B
100
AcDbEntity
  8
M0
  6
CONTINUOUS
370
13
100
AcDbCircle
 10
98.845217
 20
135.348186
 40
0.65697
  0
CIRCLE
  5
31C
100
AcDbEntity
  8
M0
  6
CONTINUOUS
370
13
100
AcDbCircle
 10
98.845217
 20
128.245418
 40
0.65697
  0
CIRCLE
  5
31D
100
AcDbEntity
  8
M0
  6
CONTINUOUS
370
13
100
AcDbCircle
 10
98.845217
 20
131.796802
 40
0.65697
  0
CIRCLE
  5
31E
100
AcDbEntity
  8
M0
  6
CONTINUOUS
370
13
100
AcDbCircle
 10
98.845217
 20
142.450953
 40
0.65697
  0
CIRCLE
  5
31F
100
AcDbEntity
  8
M0
  6
CONTINUOUS
370
13
100
AcDbCircle
 10
98.845217
 20
138.899569
 40
0.65697
  0
LINE
  5
320
100
AcDbEntity
  8
M0
  6
CONTINUOUS
370
13
100
AcDbLine
 10
129.674109
 20
234.6118
 11
129.674109
 21
253.970959
  0
LINE
  5
321
100
AcDbEntity
  8
M0
  6
CONTINUOUS
370
13
100
AcDbLine
 10
128.547406
 20
253.361075
 11
130.800812
 21
251.107669
  0
LINE
  5
322
100
AcDbEntity
  8
M0
  6
CONTINUOUS
370
13
100
AcDbLine
 10
128.547406
 20
251.502884
 11
130.800812
 21
249.249479
  0
LINE
  5
323
100
AcDbEntity
  8
M0
  6
CONTINUOUS
370
13
100
AcDbLine
 10
128.547406
 20
249.644694
 11
130.800812
 21
247.391288
  0
LINE
  5
324
100
AcDbEntity
  8
M0
  6
CONTINUOUS
370
13
100
AcDbLine
 10
128.547406
 20
247.786503
 11
130.800812
 21
245.533098
  0
LINE
  5
325
100
AcDbEntity
  8
M0
  6
CONTINUOUS
370
13
100
AcDbLine
 10
128.547406
 20
245.928313
 11
130.800812
 21
243.674907
  0
LINE
  5
326
100
AcDbEntity
  8
M0
  6
CONTINUOUS
370
13
100
AcDbLine
 10
128.547406
 20
244.070122
 11
130.800812
 21
241.816716
  0
LINE
  5
327
100
AcDbEntity
  8
M0
  6
CONTINUOUS
370
13
100
AcDbLine
 10
157.378894
 20
245.928313
 11
159.632299
 21
243.674907
  0
LINE
  5
328
100
AcDbEntity
  8
M0
  6
CONTINUOUS
370
13
100
AcDbLine
 10
157.378894
 20
244.070122
 11
159.632299
 21
241.816716
  0
LINE
  5
329
100
AcDbEntity
  8
M0
  6
CONTINUOUS
370
13
100
AcDbLine
 10
157.378894
 20
247.786503
 11
159.632299
 21
245.533098
  0
LINE
  5
32A
100
AcDbEntity
  8
M0
  6
CONTINUOUS
370
13
100
AcDbLine
 10
157.378894
 20
251.502884
 11
159.632299
 21
249.249479
  0
LINE
  5
32B
100
AcDbEntity
  8
M0
  6
CONTINUOUS
370
13
100
AcDbLine
 10
157.378894
 20
249.644694
 11
159.632299
 21
247.391288
  0
LINE
  5
32C
100
AcDbEntity
  8
M0
  6
CONTINUOUS
370
13
100
AcDbLine
 10
157.378894
 20
253.361075
 11
159.632299
 21
251.107669
  0
CIRCLE
  5
32D
100
AcDbEntity
  8
M0
  6
CONTINUOUS
370
13
100
AcDbCircle
 10
129.674109
 20
256.598838
 40
2.627878
  0
LINE
  5
32E
100
AcDbEntity
  8
M0
  6
CONTINUOUS
370
13
100
AcDbLine
 10
178.621783
 20
212.7825
 11
180.875189
 21
215.035905
  0
LINE
  5
32F
100
AcDbEntity
  8
M0
  6
CONTINUOUS
370
13
100
AcDbLine
 10
179.829578
 20
220.666134
 11
182.082984
 21
222.91954
  0
LINE
  5
330
100
AcDbEntity
  8
M0
  6
CONTINUOUS
370
13
100
AcDbLine
 10
179.823004
 20
212.7825
 11
182.07641
 21
215.035905
  0
LINE
  5
331
100
AcDbEntity
  8
M0
  6
CONTINUOUS
370
13
100
AcDbLine
 10
177.420562
 20
212.7825
 11
179.673968
 21
215.035905
  0
LINE
  5
332
100
AcDbEntity
  8
M0
  6
CONTINUOUS
370
13
100
AcDbLine
 10
178.628357
 20
220.666134
 11
180.881763
 21
222.91954
  0
LINE
  5
333
100
AcDbEntity
  8
M0
  6
CONTINUOUS
370
13
100
AcDbLine
 10
173.159401
 20
214.006802
 11
182.55425
 21
214.006802
  0
LINE
  5
334
100
AcDbEntity
  8
M0
  6
CONTINUOUS
370
13
100
AcDbLine
 10
173.167288
 20
221.890437
 11
182.568711
 21
221.890437
  0
LINE
  5
335
100
AcDbEntity
  8
M0
  6
CONTINUOUS
370
13
100
AcDbLine
 10
177.427136
 20
220.666134
 11
179.680542
 21
222.91954
  0
LINE
  5
336
100
AcDbEntity
  8
M0
  6
CONTINUOUS
370
13
100
AcDbLine
 10
176.755684
 20
214.663772
 11
176.755684
 21
215.320742
  0
LINE
  5
337
100
AcDbEntity
  8
M0
  6
CONTINUOUS
370
13
100
AcDbLine
 10
176.755684
 20
222.547407
 11
176.755684
 21
223.204376
  0
LINE
  5
338
100
AcDbEntity
  8
M0
  6
CONTINUOUS
370
13
100
AcDbLine
 10
173.159401
 20
219.919528
 11
176.098714
 21
219.919528
  0
LINE
  5
339
100
AcDbEntity
  8
M0
  6
CONTINUOUS
370
13
100
AcDbLine
 10
173.159401
 20
223.861346
 11
176.098714
 21
223.861346
  0
LINE
  5
33A
100
AcDbEntity
  8
M0
  6
CONTINUOUS
370
13
100
AcDbLine
 10
176.755684
 20
213.349833
 11
176.755684
 21
212.692863
  0
LINE
  5
33B
100
AcDbEntity
  8
M0
  6
CONTINUOUS
370
13
100
AcDbLine
 10
173.159401
 20
212.035894
 11
176.098714
 21
212.035894
  0
LINE
  5
33C
100
AcDbEntity
  8
M0
  6
CONTINUOUS
370
13
100
AcDbLine
 10
176.755684
 20
221.233468
 11
176.755684
 21
220.576498
  0
LINE
  5
33D
100
AcDbEntity
  8
M0
  6
CONTINUOUS
370
13
100
AcDbLine
 10
173.159401
 20
215.977711
 11
176.098714
 21
215.977711
  0
LINE
  5
33E
100
AcDbEntity
  8
M0
  6
CONTINUOUS
370
13
 62
     7
100
AcDbLine
 10
173.53579
 20
210.640152
 11
171.140588
 21
210.640152
  0
LINE
  5
33F
100
AcDbEntity
  8
M0
  6
CONTINUOUS
370
13
 62
     7
100
AcDbLine
 10
173.53579
 20
210.640152
 11
173.53579
 21
225.578087
  0
LINE
  5
340
100
AcDbEntity
  8
M0
  6
CONTINUOUS
370
13
 62
     7
100
AcDbLine
 10
171.140588
 20
210.640152
 11
171.140588
 21
225.578087
  0
LINE
  5
341
100
AcDbEntity
  8
M0
  6
CONTINUOUS
370
13
 62
     7
100
AcDbLine
 10
173.53579
 20
225.578087
 11
171.140588
 21
225.578087
  0
CIRCLE
  5
342
100
AcDbEntity
  8
M0
  6
CONTINUOUS
370
13
100
AcDbCircle
 10
185.187999
 20
222.102745
 40
2.627878
  0
CIRCLE
  5
343
100
AcDbEntity
  8
M0
  6
CONTINUOUS
370
13
100
AcDbCircle
 10
185.182128
 20
214.007449
 40
2.627878
  0
CIRCLE
  5
344
100
AcDbEntity
  8
M0
  6
CONTINUOUS
370
13
100
AcDbCircle
 10
172.338189
 20
221.890437
 40
0.65697
  0
CIRCLE
  5
345
100
AcDbEntity
  8
M0
  6
CONTINUOUS
370
13
100
AcDbCircle
 10
172.338189
 20
223.861346
 40
0.65697
  0
CIRCLE
  5
346
100
AcDbEntity
  8
M0
  6
CONTINUOUS
370
13
100
AcDbCircle
 10
172.338189
 20
212.035894
 40
0.65697
  0
CIRCLE
  5
347
100
AcDbEntity
  8
M0
  6
CONTINUOUS
370
13
100
AcDbCircle
 10
172.338189
 20
219.919528
 40
0.65697
  0
CIRCLE
  5
348
100
AcDbEntity
  8
M0
  6
CONTINUOUS
370
13
100
AcDbCircle
 10
172.338189
 20
214.006802
 40
0.65697
  0
CIRCLE
  5
349
100
AcDbEntity
  8
M0
  6
CONTINUOUS
370
13
100
AcDbCircle
 10
172.338189
 20
217.94862
 40
0.65697
  0
CIRCLE
  5
34A
100
AcDbEntity
  8
M0
  6
CONTINUOUS
370
13
100
AcDbCircle
 10
172.338189
 20
215.977711
 40
0.65697
  0
ARC
  5
34B
100
AcDbEntity
  8
M0
  6
CONTINUOUS
370
13
100
AcDbCircle
 10
177.412654
 20
222.547407
 40
0.65697
100
AcDbArc
 50
180.0
 51
270.0
  0
ARC
  5
34C
100
AcDbEntity
  8
M0
  6
CONTINUOUS
370
13
100
AcDbCircle
 10
177.412654
 20
221.233468
 40
0.65697
100
AcDbArc
 50
90.0
 51
180.0
  0
ARC
  5
34D
100
AcDbEntity
  8
M0
  6
CONTINUOUS
370
13
100
AcDbCircle
 10
177.412654
 20
213.349833
 40
0.65697
100
AcDbArc
 50
90.0
 51
180.0
  0
ARC
  5
34E
100
AcDbEntity
  8
M0
  6
CONTINUOUS
370
13
100
AcDbCircle
 10
177.412654
 20
214.663772
 40
0.65697
100
AcDbArc
 50
180.0
 51
270.0
  0
ARC
  5
34F
100
AcDbEntity
  8
M0
  6
CONTINUOUS
370
13
100
AcDbCircle
 10
176.098714
 20
220.576498
 40
0.65697
100
AcDbArc
 50
270.0
 51
360.0
  0
ARC
  5
350
100
AcDbEntity
  8
M0
  6
CONTINUOUS
370
13
100
AcDbCircle
 10
176.098714
 20
223.204376
 40
0.65697
100
AcDbArc
 50
0.0
 51
90.0
  0
ARC
  5
351
100
AcDbEntity
  8
M0
  6
CONTINUOUS
370
13
100
AcDbCircle
 10
176.098714
 20
212.692863
 40
0.65697
100
AcDbArc
 50
270.0
 51
360.0
  0
ARC
  5
352
100
AcDbEntity
  8
M0
  6
CONTINUOUS
370
13
100
AcDbCircle
 10
176.098714
 20
215.320742
 40
0.65697
100
AcDbArc
 50
0.0
 51
90.0
  0
TEXT
  5
353
100
AcDbEntity
  8
M0
100
AcDbText
 10
170.910903
 20
215.115508
 40
2.688492
  1
ＣＮ９
 50
90.000003
 41
0.643939
  7
STANDARD
100
AcDbText
  0
TEXT
  5
354
100
AcDbEntity
  8
M0
100
AcDbText
 10
119.898623
 20
262.762851
 40
3.666125
  1
凍結防止三方弁
 41
0.694444
  7
STANDARD
100
AcDbText
  0
TEXT
  5
355
100
AcDbEntity
  8
M0
100
AcDbText
 10
188.811721
 20
220.269687
 40
3.666125
  1
給湯流量センサ（設定温度）
 50
1.001791E-005
 41
0.694444
  7
STANDARD
100
AcDbText
  0
TEXT
  5
356
100
AcDbEntity
  8
M0
100
AcDbText
 10
188.803834
 20
212.277507
 40
3.666125
  1
給湯流量センサ（高温）
 50
1.001791E-005
 41
0.694444
  7
STANDARD
100
AcDbText
  0
TEXT
  5
357
100
AcDbEntity
  8
M0
100
AcDbText
 10
150.629672
 20
262.977603
 40
3.666125
  1
排水三方弁　
 41
0.694444
  7
STANDARD
100
AcDbText
  0
LINE
  5
358
100
AcDbEntity
  8
M0
  6
CONTINUOUS
370
13
100
AcDbLine
 10
97.187319
 20
171.149547
 11
91.376655
 21
171.149547
  0
LINE
  5
359
100
AcDbEntity
  8
M0
  6
CONTINUOUS
370
13
100
AcDbLine
 10
90.719685
 20
168.434497
 11
90.719685
 21
170.492577
  0
LINE
  5
35A
100
AcDbEntity
  8
M0
  6
CONTINUOUS
370
13
100
AcDbLine
 10
97.187319
 20
168.897652
 11
91.376655
 21
168.897652
  0
LINE
  5
35B
100
AcDbEntity
  8
M0
  6
CONTINUOUS
370
13
100
AcDbLine
 10
97.187319
 20
166.645758
 11
91.376655
 21
166.645758
  0
LINE
  5
35C
100
AcDbEntity
  8
M0
  6
CONTINUOUS
370
13
100
AcDbLine
 10
97.187319
 20
164.393863
 11
91.376655
 21
164.393863
  0
LINE
  5
35D
100
AcDbEntity
  8
M0
  6
CONTINUOUS
370
13
100
AcDbLine
 10
90.062716
 20
167.777528
 11
77.714778
 21
167.777528
  0
LINE
  5
35E
100
AcDbEntity
  8
M0
  6
CONTINUOUS
370
13
100
AcDbLine
 10
90.719685
 20
167.120558
 11
90.719685
 21
165.050833
  0
LINE
  5
35F
100
AcDbEntity
  8
M0
  6
CONTINUOUS
370
13
100
AcDbLine
 10
77.714778
 20
179.592528
 11
69.090466
 21
179.592528
  0
LINE
  5
360
100
AcDbEntity
  8
M0
  6
CONTINUOUS
370
13
100
AcDbLine
 10
77.067331
 20
180.81683
 11
74.813925
 21
178.563425
  0
LINE
  5
361
100
AcDbEntity
  8
M0
  6
CONTINUOUS
370
13
100
AcDbLine
 10
75.86611
 20
180.81683
 11
73.612704
 21
178.563425
  0
LINE
  5
362
100
AcDbEntity
  8
M0
  6
CONTINUOUS
370
13
100
AcDbLine
 10
74.664889
 20
180.81683
 11
72.411483
 21
178.563425
  0
LINE
  5
363
100
AcDbEntity
  8
M0
  6
CONTINUOUS
370
13
100
AcDbLine
 10
73.463668
 20
180.81683
 11
71.210262
 21
178.563425
  0
LINE
  5
364
100
AcDbEntity
  8
M0
  6
CONTINUOUS
370
13
100
AcDbLine
 10
72.262447
 20
180.81683
 11
70.009041
 21
178.563425
  0
LINE
  5
365
100
AcDbEntity
  8
M0
  6
CONTINUOUS
370
13
100
AcDbLine
 10
83.495539
 20
169.00183
 11
81.242133
 21
166.748425
  0
LINE
  5
366
100
AcDbEntity
  8
M0
  6
CONTINUOUS
370
13
100
AcDbLine
 10
84.69676
 20
169.00183
 11
82.443354
 21
166.748425
  0
LINE
  5
367
100
AcDbEntity
  8
M0
  6
CONTINUOUS
370
13
100
AcDbLine
 10
85.897981
 20
169.00183
 11
83.644575
 21
166.748425
  0
LINE
  5
368
100
AcDbEntity
  8
M0
  6
CONTINUOUS
370
13
100
AcDbLine
 10
87.099202
 20
169.00183
 11
84.845796
 21
166.748425
  0
LINE
  5
369
100
AcDbEntity
  8
M0
  6
CONTINUOUS
370
13
100
AcDbLine
 10
89.561367
 20
192.534071
 11
87.307961
 21
190.280665
  0
CIRCLE
  5
36A
100
AcDbEntity
  8
M0
  6
CONTINUOUS
370
13
100
AcDbCircle
 10
66.462588
 20
179.592528
 40
2.627878
  0
ARC
  5
36B
100
AcDbEntity
  8
M0
  6
CONTINUOUS
370
13
100
AcDbCircle
 10
91.376655
 20
168.240682
 40
0.65697
100
AcDbArc
 50
90.0
 51
180.0
  0
ARC
  5
36C
100
AcDbEntity
  8
M0
  6
CONTINUOUS
370
13
100
AcDbCircle
 10
90.062716
 20
168.434497
 40
0.65697
100
AcDbArc
 50
270.0
 51
360.0
  0
ARC
  5
36D
100
AcDbEntity
  8
M0
  6
CONTINUOUS
370
13
100
AcDbCircle
 10
90.062716
 20
167.120558
 40
0.65697
100
AcDbArc
 50
0.0
 51
90.0
  0
ARC
  5
36E
100
AcDbEntity
  8
M0
  6
CONTINUOUS
370
13
100
AcDbCircle
 10
91.376655
 20
170.492577
 40
0.65697
100
AcDbArc
 50
90.0
 51
180.0
  0
ARC
  5
36F
100
AcDbEntity
  8
M0
  6
CONTINUOUS
370
13
100
AcDbCircle
 10
91.376655
 20
167.302727
 40
0.65697
100
AcDbArc
 50
180.0
 51
270.0
  0
ARC
  5
370
100
AcDbEntity
  8
M0
  6
CONTINUOUS
370
13
100
AcDbCircle
 10
91.376655
 20
165.050833
 40
0.65697
100
AcDbArc
 50
180.0
 51
270.0
  0
TEXT
  5
371
100
AcDbEntity
  8
M0
100
AcDbText
 10
41.983802
 20
177.691188
 40
3.666125
  1
給湯循環ポンプ
 41
0.694444
  7
STANDARD
100
AcDbText
  0
TEXT
  5
372
100
AcDbEntity
  8
M69
100
AcDbText
 10
398.25
 20
4.0
 40
5.0
  1
００１
 41
0.5
  7
STANDARD
100
AcDbText
  0
TEXT
  5
373
100
AcDbEntity
  8
M71
100
AcDbText
 10
319.716667
 20
27.0
 40
5.0
  1
ＮＴＳ
 41
0.633333
  7
STANDARD
100
AcDbText
  0
TEXT
  5
374
100
AcDbEntity
  8
M73
100
AcDbText
 10
341.549988
 20
10.3
 40
5.5
  1
３ＹＡＡ
 41
0.454545
  7
STANDARD
100
AcDbText
  0
TEXT
  5
375
100
AcDbEntity
  8
M73
100
AcDbText
 10
354.558346
 20
10.0
 40
8.0
  1
ＢＢ００４３６７９
 41
0.447917
  7
STANDARD
100
AcDbText
  0
TEXT
  5
376
100
AcDbEntity
  8
M73
100
AcDbText
 10
72.558333
 20
286.799988
 40
8.0
  1
ＢＢ００４３６７９
 50
180.000005
 41
0.552083
  7
STANDARD
100
AcDbText
  0
CIRCLE
  5
377
100
AcDbEntity
  8
M74
  6
CONTINUOUS
370
25
100
AcDbCircle
 10
402.5
 20
17.5
 40
7.5
  0
TEXT
  5
378
100
AcDbEntity
  8
M74
100
AcDbText
 10
397.708333
 20
19.6
 40
3.0
  1
ＲＥＧＤ
 41
0.694444
  7
STANDARD
100
AcDbText
  0
TEXT
  5
379
100
AcDbEntity
  8
M74
100
AcDbText
 10
397.708333
 20
15.5
 40
3.0
  1
２０１４
 41
0.694444
  7
STANDARD
100
AcDbText
  0
TEXT
  5
37A
100
AcDbEntity
  8
M74
100
AcDbText
 10
397.708333
 20
12.8
 40
3.0
  1
０３１８
 41
0.694444
  7
STANDARD
100
AcDbText
  0
TEXT
  5
37B
100
AcDbEntity
  8
M75
100
AcDbText
 10
249.133333
 20
26.5
 40
4.0
  1
Ｍ．Ｏｓｏｄｏ
 41
0.333333
  7
STANDARD
100
AcDbText
  0
TEXT
  5
37C
100
AcDbEntity
  8
M75
100
AcDbText
 10
275.666667
 20
26.5
 40
3.5
  1
２０１４－０３－１８
 41
0.47619
  7
STANDARD
100
AcDbText
  0
TEXT
  5
37D
100
AcDbEntity
  8
M75
100
AcDbText
 10
249.133333
 20
21.0
 40
4.0
  1
Ｓ．Ｋａｔａｇｉｒｉ
 41
0.333333
  7
STANDARD
100
AcDbText
  0
TEXT
  5
37E
100
AcDbEntity
  8
M75
100
AcDbText
 10
275.666667
 20
21.0
 40
3.5
  1
２０１４－０３－１８
 41
0.47619
  7
STANDARD
100
AcDbText
  0
TEXT
  5
37F
100
AcDbEntity
  8
M75
100
AcDbText
 10
249.133333
 20
10.0
 40
4.0
  1
Ｓ．Ｋａｔａｇｉｒｉ
 41
0.333333
  7
STANDARD
100
AcDbText
  0
TEXT
  5
380
100
AcDbEntity
  8
M75
100
AcDbText
 10
275.666667
 20
10.0
 40
3.5
  1
２０１４－０３－１８
 41
0.47619
  7
STANDARD
100
AcDbText
  0
LINE
  5
381
100
AcDbEntity
  8
M79
  6
CONTINUOUS
370
25
 62
     7
100
AcDbLine
 10
25.0
 20
287.0
 11
410.0
 21
287.0
  0
LINE
  5
382
100
AcDbEntity
  8
M79
  6
CONTINUOUS
370
25
 62
     7
100
AcDbLine
 10
25.0
 20
10.0
 11
25.0
 21
287.0
  0
LINE
  5
383
100
AcDbEntity
  8
M79
  6
CONTINUOUS
370
25
 62
     7
100
AcDbLine
 10
410.0
 20
10.0
 11
410.0
 21
287.0
  0
LINE
  5
384
100
AcDbEntity
  8
M79
  6
CONTINUOUS
370
13
 62
     7
100
AcDbLine
 10
0.0
 20
148.5
 11
25.0
 21
148.5
  0
LINE
  5
385
100
AcDbEntity
  8
M79
  6
CONTINUOUS
370
13
 62
     7
100
AcDbLine
 10
410.0
 20
148.5
 11
420.0
 21
148.5
  0
LINE
  5
386
100
AcDbEntity
  8
M79
  6
CONTINUOUS
370
13
 62
     7
100
AcDbLine
 10
20.0
 20
98.5
 11
25.0
 21
98.5
  0
LINE
  5
387
100
AcDbEntity
  8
M79
  6
CONTINUOUS
370
13
 62
     7
100
AcDbLine
 10
20.0
 20
48.5
 11
25.0
 21
48.5
  0
LINE
  5
388
100
AcDbEntity
  8
M79
  6
CONTINUOUS
370
13
 62
     7
100
AcDbLine
 10
20.0
 20
198.5
 11
25.0
 21
198.5
  0
LINE
  5
389
100
AcDbEntity
  8
M79
  6
CONTINUOUS
370
13
 62
     7
100
AcDbLine
 10
20.0
 20
248.5
 11
25.0
 21
248.5
  0
LINE
  5
38A
100
AcDbEntity
  8
M79
  6
CONTINUOUS
370
13
 62
     7
100
AcDbLine
 10
410.0
 20
98.5
 11
415.0
 21
98.5
  0
LINE
  5
38B
100
AcDbEntity
  8
M79
  6
CONTINUOUS
370
13
 62
     7
100
AcDbLine
 10
410.0
 20
48.5
 11
415.0
 21
48.5
  0
LINE
  5
38C
100
AcDbEntity
  8
M79
  6
CONTINUOUS
370
13
 62
     7
100
AcDbLine
 10
410.0
 20
198.5
 11
415.0
 21
198.5
  0
LINE
  5
38D
100
AcDbEntity
  8
M79
  6
CONTINUOUS
370
13
 62
     7
100
AcDbLine
 10
410.0
 20
248.5
 11
415.0
 21
248.5
  0
LINE
  5
38E
100
AcDbEntity
  8
M79
  6
CONTINUOUS
370
13
 62
     7
100
AcDbLine
 10
210.0
 20
0.0
 11
210.0
 21
10.0
  0
LINE
  5
38F
100
AcDbEntity
  8
M79
  6
CONTINUOUS
370
13
 62
     7
100
AcDbLine
 10
160.0
 20
5.0
 11
160.0
 21
10.0
  0
LINE
  5
390
100
AcDbEntity
  8
M79
  6
CONTINUOUS
370
13
 62
     7
100
AcDbLine
 10
110.0
 20
5.0
 11
110.0
 21
10.0
  0
LINE
  5
391
100
AcDbEntity
  8
M79
  6
CONTINUOUS
370
13
 62
     7
100
AcDbLine
 10
60.0
 20
5.0
 11
60.0
 21
10.0
  0
LINE
  5
392
100
AcDbEntity
  8
M79
  6
CONTINUOUS
370
13
 62
     7
100
AcDbLine
 10
260.0
 20
5.0
 11
260.0
 21
10.0
  0
LINE
  5
393
100
AcDbEntity
  8
M79
  6
CONTINUOUS
370
13
 62
     7
100
AcDbLine
 10
310.0
 20
5.0
 11
310.0
 21
10.0
  0
LINE
  5
394
100
AcDbEntity
  8
M79
  6
CONTINUOUS
370
13
 62
     7
100
AcDbLine
 10
60.0
 20
287.0
 11
60.0
 21
292.0
  0
LINE
  5
395
100
AcDbEntity
  8
M79
  6
CONTINUOUS
370
13
 62
     7
100
AcDbLine
 10
110.0
 20
287.0
 11
110.0
 21
292.0
  0
LINE
  5
396
100
AcDbEntity
  8
M79
  6
CONTINUOUS
370
13
 62
     7
100
AcDbLine
 10
160.0
 20
287.0
 11
160.0
 21
292.0
  0
LINE
  5
397
100
AcDbEntity
  8
M79
  6
CONTINUOUS
370
13
 62
     7
100
AcDbLine
 10
210.0
 20
287.0
 11
210.0
 21
297.0
  0
LINE
  5
398
100
AcDbEntity
  8
M79
  6
CONTINUOUS
370
13
 62
     7
100
AcDbLine
 10
260.0
 20
287.0
 11
260.0
 21
292.0
  0
LINE
  5
399
100
AcDbEntity
  8
M79
  6
CONTINUOUS
370
13
 62
     7
100
AcDbLine
 10
310.0
 20
287.0
 11
310.0
 21
292.0
  0
LINE
  5
39A
100
AcDbEntity
  8
M79
  6
CONTINUOUS
370
13
 62
     7
100
AcDbLine
 10
360.0
 20
287.0
 11
360.0
 21
292.0
  0
LINE
  5
39B
100
AcDbEntity
  8
M79
  6
CONTINUOUS
370
13
 62
     7
100
AcDbLine
 10
360.0
 20
5.0
 11
360.0
 21
10.0
  0
LINE
  5
39C
100
AcDbEntity
  8
M79
  6
CONTINUOUS
370
25
 62
     7
100
AcDbLine
 10
25.0
 20
274.0
 11
72.699997
 21
274.0
  0
LINE
  5
39D
100
AcDbEntity
  8
M79
  6
CONTINUOUS
370
13
 62
     7
100
AcDbLine
 10
170.0
 20
4.999999
 11
170.0
 21
9.999999
  0
LINE
  5
39E
100
AcDbEntity
  8
M79
  6
CONTINUOUS
370
13
 62
     7
100
AcDbLine
 10
180.0
 20
4.999999
 11
180.0
 21
9.999999
  0
LINE
  5
39F
100
AcDbEntity
  8
M79
  6
CONTINUOUS
370
13
 62
     7
100
AcDbLine
 10
190.0
 20
4.999999
 11
190.0
 21
9.999999
  0
LINE
  5
3A0
100
AcDbEntity
  8
M79
  6
CONTINUOUS
370
13
 62
     7
100
AcDbLine
 10
200.0
 20
4.999999
 11
200.0
 21
9.999999
  0
LINE
  5
3A1
100
AcDbEntity
  8
M79
  6
CONTINUOUS
370
13
 62
     7
100
AcDbLine
 10
210.0
 20
4.999999
 11
210.0
 21
9.999999
  0
LINE
  5
3A2
100
AcDbEntity
  8
M79
  6
CONTINUOUS
370
13
 62
     7
100
AcDbLine
 10
220.0
 20
4.999999
 11
220.0
 21
9.999999
  0
LINE
  5
3A3
100
AcDbEntity
  8
M79
  6
CONTINUOUS
370
13
 62
     7
100
AcDbLine
 10
230.0
 20
4.999999
 11
230.0
 21
9.999999
  0
LINE
  5
3A4
100
AcDbEntity
  8
M79
  6
CONTINUOUS
370
13
 62
     7
100
AcDbLine
 10
240.0
 20
4.999999
 11
240.0
 21
9.999999
  0
LINE
  5
3A5
100
AcDbEntity
  8
M79
  6
CONTINUOUS
370
13
 62
     7
100
AcDbLine
 10
250.0
 20
4.999999
 11
250.0
 21
9.999999
  0
LINE
  5
3A6
100
AcDbEntity
  8
M79
  6
CONTINUOUS
370
13
 62
     7
100
AcDbLine
 10
162.0
 20
7.499207
 11
162.0
 21
9.999999
  0
LINE
  5
3A7
100
AcDbEntity
  8
M79
  6
CONTINUOUS
370
13
 62
     7
100
AcDbLine
 10
164.0
 20
7.498415
 11
164.0
 21
9.999999
  0
LINE
  5
3A8
100
AcDbEntity
  8
M79
  6
CONTINUOUS
370
13
 62
     7
100
AcDbLine
 10
166.0
 20
7.497622
 11
166.0
 21
9.999999
  0
LINE
  5
3A9
100
AcDbEntity
  8
M79
  6
CONTINUOUS
370
13
 62
     7
100
AcDbLine
 10
168.0
 20
7.496831
 11
168.0
 21
9.999999
  0
LINE
  5
3AA
100
AcDbEntity
  8
M79
  6
CONTINUOUS
370
13
 62
     7
100
AcDbLine
 10
175.0
 20
7.494059
 11
175.0
 21
9.999998
  0
LINE
  5
3AB
100
AcDbEntity
  8
M79
  6
CONTINUOUS
370
13
 62
     7
100
AcDbLine
 10
185.0
 20
7.494058
 11
185.0
 21
9.999997
  0
LINE
  5
3AC
100
AcDbEntity
  8
M79
  6
CONTINUOUS
370
13
 62
     7
100
AcDbLine
 10
195.0
 20
7.494058
 11
195.0
 21
9.999997
  0
LINE
  5
3AD
100
AcDbEntity
  8
M79
  6
CONTINUOUS
370
13
 62
     7
100
AcDbLine
 10
205.0
 20
7.494058
 11
205.0
 21
9.999997
  0
LINE
  5
3AE
100
AcDbEntity
  8
M79
  6
CONTINUOUS
370
13
 62
     7
100
AcDbLine
 10
215.0
 20
7.494058
 11
215.0
 21
9.999997
  0
LINE
  5
3AF
100
AcDbEntity
  8
M79
  6
CONTINUOUS
370
13
 62
     7
100
AcDbLine
 10
225.0
 20
7.494058
 11
225.0
 21
9.999997
  0
LINE
  5
3B0
100
AcDbEntity
  8
M79
  6
CONTINUOUS
370
13
 62
     7
100
AcDbLine
 10
235.0
 20
7.494058
 11
235.0
 21
9.999997
  0
LINE
  5
3B1
100
AcDbEntity
  8
M79
  6
CONTINUOUS
370
13
 62
     7
100
AcDbLine
 10
245.0
 20
7.494058
 11
245.0
 21
9.999997
  0
LINE
  5
3B2
100
AcDbEntity
  8
M79
  6
CONTINUOUS
370
13
 62
     7
100
AcDbLine
 10
255.0
 20
7.494058
 11
255.0
 21
9.999997
  0
LINE
  5
3B3
100
AcDbEntity
  8
M79
  6
CONTINUOUS
370
13
 62
     7
100
AcDbLine
 10
160.0
 20
5.0
 11
260.0
 21
4.960396
  0
TEXT
  5
3B4
100
AcDbEntity
  8
M79
 62
     7
100
AcDbText
 10
18.5
 20
270.0
 40
4.0
  1
Ａ
 41
1.25
  7
STANDARD
100
AcDbText
  0
TEXT
  5
3B5
100
AcDbEntity
  8
M79
 62
     7
100
AcDbText
 10
18.5
 20
220.0
 40
4.0
  1
Ｂ
 41
1.25
  7
STANDARD
100
AcDbText
  0
TEXT
  5
3B6
100
AcDbEntity
  8
M79
 62
     7
100
AcDbText
 10
18.5
 20
170.0
 40
4.0
  1
Ｃ
 41
1.25
  7
STANDARD
100
AcDbText
  0
TEXT
  5
3B7
100
AcDbEntity
  8
M79
 62
     7
100
AcDbText
 10
18.5
 20
120.0
 40
4.0
  1
Ｄ
 41
1.25
  7
STANDARD
100
AcDbText
  0
TEXT
  5
3B8
100
AcDbEntity
  8
M79
 62
     7
100
AcDbText
 10
18.5
 20
70.0
 40
4.0
  1
Ｅ
 41
1.25
  7
STANDARD
100
AcDbText
  0
TEXT
  5
3B9
100
AcDbEntity
  8
M79
 62
     7
100
AcDbText
 10
18.5
 20
30.0
 40
4.0
  1
Ｆ
 41
1.25
  7
STANDARD
100
AcDbText
  0
TEXT
  5
3BA
100
AcDbEntity
  8
M79
 62
     7
100
AcDbText
 10
411.5
 20
270.0
 40
4.0
  1
Ａ
 41
1.25
  7
STANDARD
100
AcDbText
  0
TEXT
  5
3BB
100
AcDbEntity
  8
M79
 62
     7
100
AcDbText
 10
411.5
 20
220.0
 40
4.0
  1
Ｂ
 41
1.25
  7
STANDARD
100
AcDbText
  0
TEXT
  5
3BC
100
AcDbEntity
  8
M79
 62
     7
100
AcDbText
 10
411.5
 20
170.0
 40
4.0
  1
Ｃ
 41
1.25
  7
STANDARD
100
AcDbText
  0
TEXT
  5
3BD
100
AcDbEntity
  8
M79
 62
     7
100
AcDbText
 10
411.5
 20
120.0
 40
4.0
  1
Ｄ
 41
1.25
  7
STANDARD
100
AcDbText
  0
TEXT
  5
3BE
100
AcDbEntity
  8
M79
 62
     7
100
AcDbText
 10
411.5
 20
70.0
 40
4.0
  1
Ｅ
 41
1.25
  7
STANDARD
100
AcDbText
  0
TEXT
  5
3BF
100
AcDbEntity
  8
M79
 62
     7
100
AcDbText
 10
39.5
 20
4.0
 40
4.0
  1
１
 41
1.25
  7
STANDARD
100
AcDbText
  0
TEXT
  5
3C0
100
AcDbEntity
  8
M79
 62
     7
100
AcDbText
 10
81.5
 20
4.0
 40
4.0
  1
２
 41
1.25
  7
STANDARD
100
AcDbText
  0
TEXT
  5
3C1
100
AcDbEntity
  8
M79
 62
     7
100
AcDbText
 10
131.5
 20
4.0
 40
4.0
  1
３
 41
1.25
  7
STANDARD
100
AcDbText
  0
TEXT
  5
3C2
100
AcDbEntity
  8
M79
 62
     7
100
AcDbText
 10
281.5
 20
4.0
 40
4.0
  1
６
 41
1.25
  7
STANDARD
100
AcDbText
  0
TEXT
  5
3C3
100
AcDbEntity
  8
M79
 62
     7
100
AcDbText
 10
331.5
 20
4.0
 40
4.0
  1
７
 41
1.25
  7
STANDARD
100
AcDbText
  0
TEXT
  5
3C4
100
AcDbEntity
  8
M79
 62
     7
100
AcDbText
 10
182.420563
 20
0.724621
 40
4.0
  1
４
 41
1.25
  7
STANDARD
100
AcDbText
  0
TEXT
  5
3C5
100
AcDbEntity
  8
M79
 62
     7
100
AcDbText
 10
232.487747
 20
0.621103
 40
4.0
  1
５
 41
1.25
  7
STANDARD
100
AcDbText
  0
TEXT
  5
3C6
100
AcDbEntity
  8
M79
 62
     7
100
AcDbText
 10
39.5
 20
289.0
 40
4.0
  1
１
 41
1.25
  7
STANDARD
100
AcDbText
  0
TEXT
  5
3C7
100
AcDbEntity
  8
M79
 62
     7
100
AcDbText
 10
81.5
 20
289.0
 40
4.0
  1
２
 41
1.25
  7
STANDARD
100
AcDbText
  0
TEXT
  5
3C8
100
AcDbEntity
  8
M79
 62
     7
100
AcDbText
 10
131.5
 20
289.0
 40
4.0
  1
３
 41
1.25
  7
STANDARD
100
AcDbText
  0
TEXT
  5
3C9
100
AcDbEntity
  8
M79
 62
     7
100
AcDbText
 10
281.5
 20
289.0
 40
4.0
  1
６
 41
1.25
  7
STANDARD
100
AcDbText
  0
TEXT
  5
3CA
100
AcDbEntity
  8
M79
 62
     7
100
AcDbText
 10
331.5
 20
289.0
 40
4.0
  1
７
 41
1.25
  7
STANDARD
100
AcDbText
  0
TEXT
  5
3CB
100
AcDbEntity
  8
M79
 62
     7
100
AcDbText
 10
381.5
 20
289.0
 40
4.0
  1
８
 41
1.25
  7
STANDARD
100
AcDbText
  0
TEXT
  5
3CC
100
AcDbEntity
  8
M79
 62
     7
100
AcDbText
 10
182.420563
 20
288.924561
 40
4.0
  1
４
 41
1.25
  7
STANDARD
100
AcDbText
  0
TEXT
  5
3CD
100
AcDbEntity
  8
M79
 62
     7
100
AcDbText
 10
232.487747
 20
289.020996
 40
4.0
  1
５
 41
1.25
  7
STANDARD
100
AcDbText
  0
TEXT
  5
3CE
100
AcDbEntity
  8
M79
 62
     7
100
AcDbText
 10
158.373433
 20
2.218226
 40
2.0
  1
０
 41
1.666667
  7
STANDARD
100
AcDbText
  0
TEXT
  5
3CF
100
AcDbEntity
  8
M79
 62
     7
100
AcDbText
 10
256.725179
 20
2.129498
 40
2.0
  1
１００
 41
0.916667
  7
STANDARD
100
AcDbText
  0
LINE
  5
3D0
100
AcDbEntity
  8
M79
  6
CONTINUOUS
370
25
 62
     7
100
AcDbLine
 10
72.699997
 20
287.0
 11
72.699997
 21
274.0
  0
LINE
  5
3D1
100
AcDbEntity
  8
M79
  6
CONTINUOUS
370
25
 62
     7
100
AcDbLine
 10
25.0
 20
10.0
 11
410.0
 21
10.0
  0
TEXT
  5
3D2
100
AcDbEntity
  8
M79
 62
     7
100
AcDbText
 10
241.246246
 20
27.470188
 40
2.5
  1
ＤＷＮ．
 41
0.5
  7
STANDARD
100
AcDbText
  0
TEXT
  5
3D3
100
AcDbEntity
  8
M79
 62
     7
100
AcDbText
 10
240.968414
 20
19.642731
 40
2.5
  1
ＣＨＫＤ．
 41
0.5
  7
STANDARD
100
AcDbText
  0
TEXT
  5
3D4
100
AcDbEntity
  8
M79
 62
     7
100
AcDbText
 10
240.867371
 20
11.237426
 40
2.5
  1
ＡＰＰＤ．
 41
0.5
  7
STANDARD
100
AcDbText
  0
TEXT
  5
3D5
100
AcDbEntity
  8
M79
 62
     7
100
AcDbText
 10
334.966502
 20
34.001312
 40
3.0
  1
ＴＩＴＬＥ
 41
0.555556
  7
STANDARD
100
AcDbText
  0
TEXT
  5
3D6
100
AcDbEntity
  8
M79
 62
     7
100
AcDbText
 10
342.164164
 20
22.153
 40
3.0
  1
ＴＯＣＨＩＧＩ　ＤＷＧ．　Ｎｏ．
 41
0.555556
  7
STANDARD
100
AcDbText
  0
TEXT
  5
3D7
100
AcDbEntity
  8
M79
 62
     7
100
AcDbText
 10
319.896495
 20
34.001312
 40
3.0
  1
ＳＣＡＬＥ
 41
0.555556
  7
STANDARD
100
AcDbText
  0
TEXT
  5
3D8
100
AcDbEntity
  8
M79
 62
     7
100
AcDbText
 10
411.5
 20
30.0
 40
4.0
  1
Ｆ
 41
1.25
  7
STANDARD
100
AcDbText
  0
LINE
  5
3D9
100
AcDbEntity
  8
M79
  6
CONTINUOUS
370
25
 62
     7
100
AcDbLine
 10
240.0
 20
37.5
 11
410.0
 21
37.5
  0
LINE
  5
3DA
100
AcDbEntity
  8
M79
  6
CONTINUOUS
370
13
 62
     7
100
AcDbLine
 10
298.0
 20
26.0
 11
410.0
 21
26.0
  0
LINE
  5
3DB
100
AcDbEntity
  8
M79
  6
CONTINUOUS
370
13
 62
     7
100
AcDbLine
 10
334.0
 20
37.5
 11
334.0
 21
26.0
  0
LINE
  5
3DC
100
AcDbEntity
  8
M79
  6
CONTINUOUS
370
13
 62
     7
100
AcDbLine
 10
316.0
 20
37.5
 11
316.0
 21
26.0
  0
LINE
  5
3DD
100
AcDbEntity
  8
M79
  6
CONTINUOUS
370
13
 62
     7
100
AcDbLine
 10
395.0
 20
26.0
 11
395.0
 21
10.0
  0
LINE
  5
3DE
100
AcDbEntity
  8
M79
  6
CONTINUOUS
370
13
 62
     7
100
AcDbLine
 10
298.0
 20
37.5
 11
298.0
 21
10.0
  0
LINE
  5
3DF
100
AcDbEntity
  8
M79
  6
CONTINUOUS
370
13
 62
     7
100
AcDbLine
 10
240.0
 20
26.5
 11
298.0
 21
26.5
  0
LINE
  5
3E0
100
AcDbEntity
  8
M79
  6
CONTINUOUS
370
13
 62
     7
100
AcDbLine
 10
248.0
 20
32.0
 11
248.0
 21
10.0
  0
LINE
  5
3E1
100
AcDbEntity
  8
M79
  6
CONTINUOUS
370
13
 62
     7
100
AcDbLine
 10
240.0
 20
32.0
 11
298.0
 21
32.0
  0
LINE
  5
3E2
100
AcDbEntity
  8
M79
  6
CONTINUOUS
370
25
 62
     7
100
AcDbLine
 10
240.0
 20
37.5
 11
240.0
 21
10.0
  0
LINE
  5
3E3
100
AcDbEntity
  8
M79
  6
CONTINUOUS
370
13
 62
     7
100
AcDbLine
 10
273.0
 20
37.5
 11
273.0
 21
10.0
  0
LINE
  5
3E4
100
AcDbEntity
  8
M79
  6
CONTINUOUS
370
13
 62
     7
100
AcDbLine
 10
248.0
 20
21.0
 11
298.0
 21
21.0
  0
LINE
  5
3E5
100
AcDbEntity
  8
M79
  6
CONTINUOUS
370
13
 62
     7
100
AcDbLine
 10
240.0
 20
15.5
 11
298.0
 21
15.5
  0
LINE
  5
3E6
100
AcDbEntity
  8
M79
  6
CONTINUOUS
370
13
 62
     7
100
AcDbLine
 10
341.3
 20
26.0
 11
341.3
 21
10.0
  0
TEXT
  5
3E7
100
AcDbEntity
  8
M79
 62
     7
100
AcDbText
 10
398.43067
 20
23.014603
 40
2.8
  1
ＲＥＧＤ．
 41
0.535714
  7
STANDARD
100
AcDbText
  0
TEXT
  5
3E8
100
AcDbEntity
  8
M79
 62
     7
100
AcDbText
 10
281.166667
 20
33.0
 40
3.0
  1
ＤＡＴＥ
 41
0.555556
  7
STANDARD
100
AcDbText
  0
TEXT
  5
3E9
100
AcDbEntity
  8
M79
 62
     7
100
AcDbText
 10
248.166667
 20
33.0
 40
3.0
  1
ＳＩＧＮＡＴＵＲＥ
 41
0.555556
  7
STANDARD
100
AcDbText
  0
TEXT
  5
3EA
100
AcDbEntity
  8
M79
 62
     7
100
AcDbText
 10
299.816162
 20
34.347473
 40
2.5
  1
ＰＲＯＪＥＣＴＩＯＮ
 41
0.5
  7
STANDARD
100
AcDbText
  0
LINE
  5
3EB
100
AcDbEntity
  8
M79
  6
CONTINUOUS
370
25
 62
     7
100
AcDbLine
 10
400.990983
 20
32.8
 11
401.3
 21
32.8
  0
ARC
  5
3EC
100
AcDbEntity
  8
M79
  6
CONTINUOUS
370
25
 62
     7
100
AcDbCircle
 10
400.990983
 20
34.0
 40
0.2
100
AcDbArc
 50
90.0
 51
138.189685
  0
ARC
  5
3ED
100
AcDbEntity
  8
M79
  6
CONTINUOUS
370
25
 62
     7
100
AcDbCircle
 10
401.55
 20
33.5
 40
0.95
100
AcDbArc
 50
138.189685
 51
221.810315
  0
ELLIPSE
  5
3EE
100
AcDbEntity
  8
M79
  6
CONTINUOUS
370
25
 62
     7
100
AcDbEllipse
 10
404.0
 20
33.5
 11
5.0
 21
0.0
210
0.0
220
0.0
230
1.0
 40
0.6
 41
0.0
 42
6.283185307179586
  0
LINE
  5
3EF
100
AcDbEntity
  8
M79
  6
CONTINUOUS
370
25
 62
     7
100
AcDbLine
 10
402.1
 20
35.2
 11
402.1
 21
34.894427
  0
LINE
  5
3F0
100
AcDbEntity
  8
M79
  6
CONTINUOUS
370
25
 62
     7
100
AcDbLine
 10
406.8
 20
34.2
 11
406.8
 21
32.8
  0
LINE
  5
3F1
100
AcDbEntity
  8
M79
  6
CONTINUOUS
370
25
 62
     7
100
AcDbLine
 10
405.8
 20
34.2
 11
406.0
 21
34.2
  0
LINE
  5
3F2
100
AcDbEntity
  8
M79
  6
CONTINUOUS
370
25
 62
     7
100
AcDbLine
 10
407.209017
 20
32.8
 11
406.8
 21
32.8
  0
LINE
  5
3F3
100
AcDbEntity
  8
M79
  6
CONTINUOUS
370
25
 62
     7
100
AcDbLine
 10
406.8
 20
34.2
 11
407.209017
 21
34.2
  0
LINE
  5
3F4
100
AcDbEntity
  8
M79
  6
CONTINUOUS
370
25
 62
     7
100
AcDbLine
 10
406.0
 20
32.8
 11
405.8
 21
32.8
  0
LINE
  5
3F5
100
AcDbEntity
  8
M79
  6
CONTINUOUS
370
25
 62
     7
100
AcDbLine
 10
403.189003
 20
31.8
 11
403.458233
 21
32.5
  0
LINE
  5
3F6
100
AcDbEntity
  8
M79
  6
CONTINUOUS
370
25
 62
     7
100
AcDbLine
 10
404.810997
 20
31.8
 11
404.541767
 21
32.5
  0
LINE
  5
3F7
100
AcDbEntity
  8
M79
  6
CONTINUOUS
370
25
 62
     7
100
AcDbLine
 10
403.727464
 20
33.2
 11
404.0
 21
34.108593
  0
LINE
  5
3F8
100
AcDbEntity
  8
M79
  6
CONTINUOUS
370
25
 62
     7
100
AcDbLine
 10
403.727464
 20
33.2
 11
404.272536
 21
33.2
  0
LINE
  5
3F9
100
AcDbEntity
  8
M79
  6
CONTINUOUS
370
25
 62
     7
100
AcDbLine
 10
404.272536
 20
33.2
 11
404.0
 21
34.108593
  0
LINE
  5
3FA
100
AcDbEntity
  8
M79
  6
CONTINUOUS
370
25
 62
     7
100
AcDbLine
 10
403.458233
 20
32.5
 11
404.541767
 21
32.5
  0
LINE
  5
3FB
100
AcDbEntity
  8
M79
  6
CONTINUOUS
370
25
 62
     7
100
AcDbLine
 10
406.0
 20
34.2
 11
406.0
 21
32.8
  0
LINE
  5
3FC
100
AcDbEntity
  8
M79
  6
CONTINUOUS
370
25
 62
     7
100
AcDbLine
 10
400.990983
 20
35.2
 11
401.3
 21
35.2
  0
LINE
  5
3FD
100
AcDbEntity
  8
M79
  6
CONTINUOUS
370
25
 62
     7
100
AcDbLine
 10
402.1
 20
35.2
 11
402.5
 21
35.2
  0
LINE
  5
3FE
100
AcDbEntity
  8
M79
  6
CONTINUOUS
370
25
 62
     7
100
AcDbLine
 10
402.5
 20
35.2
 11
402.5
 21
33.9
  0
LINE
  5
3FF
100
AcDbEntity
  8
M79
  6
CONTINUOUS
370
25
 62
     7
100
AcDbLine
 10
400.990983
 20
31.8
 11
401.3
 21
31.8
  0
LINE
  5
400
100
AcDbEntity
  8
M79
  6
CONTINUOUS
370
25
 62
     7
100
AcDbLine
 10
403.65
 20
35.2
 11
404.35
 21
35.2
  0
LINE
  5
401
100
AcDbEntity
  8
M79
  6
CONTINUOUS
370
25
 62
     7
100
AcDbLine
 10
402.317588
 20
31.8
 11
403.189003
 21
31.8
  0
LINE
  5
402
100
AcDbEntity
  8
M79
  6
CONTINUOUS
370
25
 62
     7
100
AcDbLine
 10
404.810997
 20
31.8
 11
405.682412
 21
31.8
  0
LINE
  5
403
100
AcDbEntity
  8
M79
  6
CONTINUOUS
370
25
 62
     7
100
AcDbLine
 10
407.009017
 20
31.8
 11
405.8
 21
31.8
  0
LINE
  5
404
100
AcDbEntity
  8
M79
  6
CONTINUOUS
370
25
 62
     7
100
AcDbLine
 10
405.8
 20
35.2
 11
407.009017
 21
35.2
  0
LINE
  5
405
100
AcDbEntity
  8
M79
  6
CONTINUOUS
370
25
 62
     7
100
AcDbLine
 10
405.8
 20
35.2
 11
405.8
 21
34.2
  0
LINE
  5
406
100
AcDbEntity
  8
M79
  6
CONTINUOUS
370
25
 62
     7
100
AcDbLine
 10
405.8
 20
32.8
 11
405.8
 21
31.8
  0
LINE
  5
407
100
AcDbEntity
  8
M79
  6
CONTINUOUS
370
25
 62
     7
100
AcDbLine
 10
403.65
 20
35.2
 11
402.317588
 21
31.8
  0
LINE
  5
408
100
AcDbEntity
  8
M79
  6
CONTINUOUS
370
25
 62
     7
100
AcDbLine
 10
404.35
 20
35.2
 11
405.682412
 21
31.8
  0
LINE
  5
409
100
AcDbEntity
  8
M79
  6
CONTINUOUS
370
25
 62
     7
100
AcDbLine
 10
402.5
 20
33.9
 11
401.602667
 21
33.9
  0
LINE
  5
40A
100
AcDbEntity
  8
M79
  6
CONTINUOUS
370
25
 62
     7
100
AcDbLine
 10
402.495826
 20
33.1
 11
401.602667
 21
33.1
  0
LINE
  5
40B
100
AcDbEntity
  8
M79
  6
CONTINUOUS
370
25
 62
     7
100
AcDbLine
 10
401.820551
 20
30.8
 11
406.179449
 21
30.8
  0
LINE
  5
40C
100
AcDbEntity
  8
M79
  6
CONTINUOUS
370
25
 62
     7
100
AcDbLine
 10
401.0
 20
31.1
 11
407.0
 21
31.1
  0
LINE
  5
40D
100
AcDbEntity
  8
M79
  6
CONTINUOUS
370
25
 62
     7
100
AcDbLine
 10
400.429286
 20
31.4
 11
407.570714
 21
31.4
  0
LINE
  5
40E
100
AcDbEntity
  8
M79
  6
CONTINUOUS
370
25
 62
     7
100
AcDbLine
 10
400.0
 20
31.7
 11
408.0
 21
31.7
  0
LINE
  5
40F
100
AcDbEntity
  8
M79
  6
CONTINUOUS
370
25
 62
     7
100
AcDbLine
 10
399.669873
 20
32.0
 11
400.327658
 21
32.0
  0
LINE
  5
410
100
AcDbEntity
  8
M79
  6
CONTINUOUS
370
25
 62
     7
100
AcDbLine
 10
401.963325
 20
32.0
 11
402.395965
 21
32.0
  0
LINE
  5
411
100
AcDbEntity
  8
M79
  6
CONTINUOUS
370
25
 62
     7
100
AcDbLine
 10
403.265926
 20
32.0
 11
404.734074
 21
32.0
  0
LINE
  5
412
100
AcDbEntity
  8
M79
  6
CONTINUOUS
370
25
 62
     7
100
AcDbLine
 10
405.604035
 20
32.0
 11
405.8
 21
32.0
  0
LINE
  5
413
100
AcDbEntity
  8
M79
  6
CONTINUOUS
370
25
 62
     7
100
AcDbLine
 10
407.672342
 20
32.0
 11
408.330127
 21
32.0
  0
LINE
  5
414
100
AcDbEntity
  8
M79
  6
CONTINUOUS
370
25
 62
     7
100
AcDbLine
 10
399.417424
 20
32.3
 11
400.012957
 21
32.3
  0
LINE
  5
415
100
AcDbEntity
  8
M79
  6
CONTINUOUS
370
25
 62
     7
100
AcDbLine
 10
402.274679
 20
32.3
 11
402.513531
 21
32.3
  0
LINE
  5
416
100
AcDbEntity
  8
M79
  6
CONTINUOUS
370
25
 62
     7
100
AcDbLine
 10
403.38131
 20
32.3
 11
404.61869
 21
32.3
  0
LINE
  5
417
100
AcDbEntity
  8
M79
  6
CONTINUOUS
370
25
 62
     7
100
AcDbLine
 10
405.486469
 20
32.3
 11
405.8
 21
32.3
  0
LINE
  5
418
100
AcDbEntity
  8
M79
  6
CONTINUOUS
370
25
 62
     7
100
AcDbLine
 10
407.987043
 20
32.3
 11
408.582576
 21
32.3
  0
LINE
  5
419
100
AcDbEntity
  8
M79
  6
CONTINUOUS
370
25
 62
     7
100
AcDbLine
 10
399.230304
 20
32.6
 11
399.820116
 21
32.6
  0
LINE
  5
41A
100
AcDbEntity
  8
M79
  6
CONTINUOUS
370
25
 62
     7
100
AcDbLine
 10
402.431371
 20
32.6
 11
402.631097
 21
32.6
  0
LINE
  5
41B
100
AcDbEntity
  8
M79
  6
CONTINUOUS
370
25
 62
     7
100
AcDbLine
 10
405.368903
 20
32.6
 11
405.8
 21
32.6
  0
LINE
  5
41C
100
AcDbEntity
  8
M79
  6
CONTINUOUS
370
25
 62
     7
100
AcDbLine
 10
408.179884
 20
32.6
 11
408.769696
 21
32.6
  0
LINE
  5
41D
100
AcDbEntity
  8
M79
  6
CONTINUOUS
370
25
 62
     7
100
AcDbLine
 10
399.101021
 20
32.9
 11
399.694602
 21
32.9
  0
LINE
  5
41E
100
AcDbEntity
  8
M79
  6
CONTINUOUS
370
25
 62
     7
100
AcDbLine
 10
400.813454
 20
32.9
 11
401.477529
 21
32.9
  0
LINE
  5
41F
100
AcDbEntity
  8
M79
  6
CONTINUOUS
370
25
 62
     7
100
AcDbLine
 10
402.495826
 20
32.9
 11
402.748663
 21
32.9
  0
LINE
  5
420
100
AcDbEntity
  8
M79
  6
CONTINUOUS
370
25
 62
     7
100
AcDbLine
 10
405.251337
 20
32.9
 11
406.0
 21
32.9
  0
ARC
  5
421
100
AcDbEntity
  8
M79
  6
CONTINUOUS
370
25
 62
     7
100
AcDbCircle
 10
400.990983
 20
33.0
 40
0.2
100
AcDbArc
 50
221.810315
 51
270.0
  0
LINE
  5
422
100
AcDbEntity
  8
M79
  6
CONTINUOUS
370
25
 62
     7
100
AcDbLine
 10
400.990983
 20
34.2
 11
401.3
 21
34.2
  0
ARC
  5
423
100
AcDbEntity
  8
M79
  6
CONTINUOUS
370
25
 62
     7
100
AcDbCircle
 10
406.65
 20
33.5
 40
0.95
100
AcDbArc
 50
318.189685
 51
401.810315
  0
LINE
  5
424
100
AcDbEntity
  8
M79
  6
CONTINUOUS
370
25
 62
     7
100
AcDbLine
 10
406.8
 20
34.0
 11
407.457775
 21
34.0
  0
ARC
  5
425
100
AcDbEntity
  8
M79
  6
CONTINUOUS
370
25
 62
     7
100
AcDbCircle
 10
407.209017
 20
34.0
 40
0.2
100
AcDbArc
 50
41.810315
 51
90.0
  0
ARC
  5
426
100
AcDbEntity
  8
M79
  6
CONTINUOUS
370
25
 62
     7
100
AcDbCircle
 10
407.209017
 20
33.0
 40
0.2
100
AcDbArc
 50
270.0
 51
318.189685
  0
ARC
  5
427
100
AcDbEntity
  8
M79
  6
CONTINUOUS
370
25
 62
     7
100
AcDbCircle
 10
401.3
 20
34.0
 40
1.2
100
AcDbArc
 50
48.189685
 51
90.0
  0
ARC
  5
428
100
AcDbEntity
  8
M79
  6
CONTINUOUS
370
25
 62
     7
100
AcDbCircle
 10
400.990983
 20
34.0
 40
1.2
100
AcDbArc
 50
90.0
 51
138.189685
  0
ARC
  5
429
100
AcDbEntity
  8
M79
  6
CONTINUOUS
370
25
 62
     7
100
AcDbCircle
 10
401.55
 20
33.5
 40
1.95
100
AcDbArc
 50
138.189685
 51
221.810315
  0
ARC
  5
42A
100
AcDbEntity
  8
M79
  6
CONTINUOUS
370
25
 62
     7
100
AcDbCircle
 10
400.990983
 20
33.0
 40
1.2
100
AcDbArc
 50
221.810315
 51
270.0
  0
ARC
  5
42B
100
AcDbEntity
  8
M79
  6
CONTINUOUS
370
25
 62
     7
100
AcDbCircle
 10
401.3
 20
33.0
 40
1.2
100
AcDbArc
 50
270.0
 51
364.780192
  0
ARC
  5
42C
100
AcDbEntity
  8
M79
  6
CONTINUOUS
370
25
 62
     7
100
AcDbCircle
 10
406.45
 20
33.5
 40
1.95
100
AcDbArc
 50
318.189685
 51
401.810315
  0
ARC
  5
42D
100
AcDbEntity
  8
M79
  6
CONTINUOUS
370
25
 62
     7
100
AcDbCircle
 10
407.009017
 20
33.0
 40
1.2
100
AcDbArc
 50
270.0
 51
318.189685
  0
ARC
  5
42E
100
AcDbEntity
  8
M79
  6
CONTINUOUS
370
25
 62
     7
100
AcDbCircle
 10
407.009017
 20
34.0
 40
1.2
100
AcDbArc
 50
41.810315
 51
90.0
  0
ARC
  5
42F
100
AcDbEntity
  8
M79
  6
CONTINUOUS
370
25
 62
     7
100
AcDbCircle
 10
401.3
 20
34.0
 40
0.2
100
AcDbArc
 50
41.810315
 51
90.0
  0
ARC
  5
430
100
AcDbEntity
  8
M79
  6
CONTINUOUS
370
25
 62
     7
100
AcDbCircle
 10
400.740983
 20
33.5
 40
0.95
100
AcDbArc
 50
318.189685
 51
335.098938
  0
ARC
  5
431
100
AcDbEntity
  8
M79
  6
CONTINUOUS
370
25
 62
     7
100
AcDbCircle
 10
401.3
 20
33.0
 40
0.2
100
AcDbArc
 50
270.0
 51
318.189685
  0
ARC
  5
432
100
AcDbEntity
  8
M79
  6
CONTINUOUS
370
25
 62
     7
100
AcDbCircle
 10
400.740983
 20
33.5
 40
0.95
100
AcDbArc
 50
24.901062
 51
41.810315
  0
LINE
  5
433
100
AcDbEntity
  8
M79
  6
CONTINUOUS
370
25
 62
     7
100
AcDbLine
 10
408.305398
 20
32.9
 11
408.898979
 21
32.9
  0
LINE
  5
434
100
AcDbEntity
  8
M79
  6
CONTINUOUS
370
25
 62
     7
100
AcDbLine
 10
399.025063
 20
33.2
 11
399.623215
 21
33.2
  0
LINE
  5
435
100
AcDbEntity
  8
M79
  6
CONTINUOUS
370
25
 62
     7
100
AcDbLine
 10
400.648612
 20
33.2
 11
402.866228
 21
33.2
  0
LINE
  5
436
100
AcDbEntity
  8
M79
  6
CONTINUOUS
370
25
 62
     7
100
AcDbLine
 10
405.133772
 20
33.2
 11
406.0
 21
33.2
  0
LINE
  5
437
100
AcDbEntity
  8
M79
  6
CONTINUOUS
370
25
 62
     7
100
AcDbLine
 10
408.376785
 20
33.2
 11
408.974937
 21
33.2
  0
LINE
  5
438
100
AcDbEntity
  8
M79
  6
CONTINUOUS
370
25
 62
     7
100
AcDbLine
 10
399.0
 20
33.5
 11
399.6
 21
33.5
  0
LINE
  5
439
100
AcDbEntity
  8
M79
  6
CONTINUOUS
370
25
 62
     7
100
AcDbLine
 10
400.6
 20
33.5
 11
402.983794
 21
33.5
  0
LINE
  5
43A
100
AcDbEntity
  8
M79
  6
CONTINUOUS
370
25
 62
     7
100
AcDbLine
 10
405.016206
 20
33.5
 11
406.0
 21
33.5
  0
LINE
  5
43B
100
AcDbEntity
  8
M79
  6
CONTINUOUS
370
25
 62
     7
100
AcDbLine
 10
408.4
 20
33.5
 11
409.0
 21
33.5
  0
LINE
  5
43C
100
AcDbEntity
  8
M79
  6
CONTINUOUS
370
25
 62
     7
100
AcDbLine
 10
399.025063
 20
33.8
 11
399.623215
 21
33.8
  0
LINE
  5
43D
100
AcDbEntity
  8
M79
  6
CONTINUOUS
370
25
 62
     7
100
AcDbLine
 10
400.648612
 20
33.8
 11
403.10136
 21
33.8
  0
LINE
  5
43E
100
AcDbEntity
  8
M79
  6
CONTINUOUS
370
25
 62
     7
100
AcDbLine
 10
404.89864
 20
33.8
 11
406.0
 21
33.8
  0
LINE
  5
43F
100
AcDbEntity
  8
M79
  6
CONTINUOUS
370
25
 62
     7
100
AcDbLine
 10
408.376785
 20
33.8
 11
408.974937
 21
33.8
  0
LINE
  5
440
100
AcDbEntity
  8
M79
  6
CONTINUOUS
370
25
 62
     7
100
AcDbLine
 10
399.101021
 20
34.1
 11
399.694602
 21
34.1
  0
LINE
  5
441
100
AcDbEntity
  8
M79
  6
CONTINUOUS
370
25
 62
     7
100
AcDbLine
 10
400.813454
 20
34.1
 11
401.477529
 21
34.1
  0
LINE
  5
442
100
AcDbEntity
  8
M79
  6
CONTINUOUS
370
25
 62
     7
100
AcDbLine
 10
402.5
 20
34.1
 11
403.218926
 21
34.1
  0
LINE
  5
443
100
AcDbEntity
  8
M79
  6
CONTINUOUS
370
25
 62
     7
100
AcDbLine
 10
404.781074
 20
34.1
 11
406.0
 21
34.1
  0
LINE
  5
444
100
AcDbEntity
  8
M79
  6
CONTINUOUS
370
25
 62
     7
100
AcDbLine
 10
408.305398
 20
34.1
 11
408.898979
 21
34.1
  0
LINE
  5
445
100
AcDbEntity
  8
M79
  6
CONTINUOUS
370
25
 62
     7
100
AcDbLine
 10
399.230304
 20
34.4
 11
399.820116
 21
34.4
  0
LINE
  5
446
100
AcDbEntity
  8
M79
  6
CONTINUOUS
370
25
 62
     7
100
AcDbLine
 10
402.5
 20
34.4
 11
403.336491
 21
34.4
  0
LINE
  5
447
100
AcDbEntity
  8
M79
  6
CONTINUOUS
370
25
 62
     7
100
AcDbLine
 10
404.663509
 20
34.4
 11
405.8
 21
34.4
  0
LINE
  5
448
100
AcDbEntity
  8
M79
  6
CONTINUOUS
370
25
 62
     7
100
AcDbLine
 10
408.179884
 20
34.4
 11
408.769696
 21
34.4
  0
LINE
  5
449
100
AcDbEntity
  8
M79
  6
CONTINUOUS
370
25
 62
     7
100
AcDbLine
 10
399.417424
 20
34.7
 11
400.012957
 21
34.7
  0
LINE
  5
44A
100
AcDbEntity
  8
M79
  6
CONTINUOUS
370
25
 62
     7
100
AcDbLine
 10
402.5
 20
34.7
 11
403.454057
 21
34.7
  0
LINE
  5
44B
100
AcDbEntity
  8
M79
  6
CONTINUOUS
370
25
 62
     7
100
AcDbLine
 10
404.545943
 20
34.7
 11
405.8
 21
34.7
  0
LINE
  5
44C
100
AcDbEntity
  8
M79
  6
CONTINUOUS
370
25
 62
     7
100
AcDbLine
 10
407.987043
 20
34.7
 11
408.582576
 21
34.7
  0
LINE
  5
44D
100
AcDbEntity
  8
M79
  6
CONTINUOUS
370
25
 62
     7
100
AcDbLine
 10
399.669873
 20
35.0
 11
400.327658
 21
35.0
  0
LINE
  5
44E
100
AcDbEntity
  8
M79
  6
CONTINUOUS
370
25
 62
     7
100
AcDbLine
 10
401.963325
 20
35.0
 11
402.1
 21
35.0
  0
LINE
  5
44F
100
AcDbEntity
  8
M79
  6
CONTINUOUS
370
25
 62
     7
100
AcDbLine
 10
402.5
 20
35.0
 11
403.571623
 21
35.0
  0
LINE
  5
450
100
AcDbEntity
  8
M79
  6
CONTINUOUS
370
25
 62
     7
100
AcDbLine
 10
404.428377
 20
35.0
 11
405.8
 21
35.0
  0
LINE
  5
451
100
AcDbEntity
  8
M79
  6
CONTINUOUS
370
25
 62
     7
100
AcDbLine
 10
407.672342
 20
35.0
 11
408.330127
 21
35.0
  0
LINE
  5
452
100
AcDbEntity
  8
M79
  6
CONTINUOUS
370
25
 62
     7
100
AcDbLine
 10
400.0
 20
35.3
 11
408.0
 21
35.3
  0
LINE
  5
453
100
AcDbEntity
  8
M79
  6
CONTINUOUS
370
25
 62
     7
100
AcDbLine
 10
400.429286
 20
35.6
 11
407.570714
 21
35.6
  0
LINE
  5
454
100
AcDbEntity
  8
M79
  6
CONTINUOUS
370
25
 62
     7
100
AcDbLine
 10
401.0
 20
35.9
 11
407.0
 21
35.9
  0
LINE
  5
455
100
AcDbEntity
  8
M79
  6
CONTINUOUS
370
25
 62
     7
100
AcDbLine
 10
401.820551
 20
36.2
 11
406.179449
 21
36.2
  0
LINE
  5
456
100
AcDbEntity
  8
M79
  6
CONTINUOUS
370
25
 62
     7
100
AcDbLine
 10
403.81745
 20
33.5
 11
404.18255
 21
33.5
  0
LINE
  5
457
100
AcDbEntity
  8
M79
  6
CONTINUOUS
370
25
 62
     7
100
AcDbLine
 10
403.907436
 20
33.8
 11
404.092564
 21
33.8
  0
LINE
  5
458
100
AcDbEntity
  8
M79
  6
CONTINUOUS
370
25
 62
     7
100
AcDbLine
 10
403.997422
 20
34.1
 11
404.002578
 21
34.1
  0
LINE
  5
459
100
AcDbEntity
  8
M79
  6
CONTINUOUS
370
25
 62
     7
100
AcDbLine
 10
406.8
 20
33.1
 11
407.511684
 21
33.1
  0
LINE
  5
45A
100
AcDbEntity
  8
M79
  6
CONTINUOUS
370
25
 62
     7
100
AcDbLine
 10
406.8
 20
33.4
 11
407.594722
 21
33.4
  0
LINE
  5
45B
100
AcDbEntity
  8
M79
  6
CONTINUOUS
370
25
 62
     7
100
AcDbLine
 10
406.8
 20
33.7
 11
407.578709
 21
33.7
  0
LINE
  5
45C
100
AcDbEntity
  8
M79
  6
CONTINUOUS
370
25
 62
     7
100
AcDbLine
 10
308.078572
 20
28.751659
 11
313.342243
 21
27.501659
  0
LINE
  5
45D
100
AcDbEntity
  8
M79
  6
CONTINUOUS
370
25
 62
     7
100
AcDbLine
 10
308.078572
 20
31.251659
 11
308.078572
 21
28.751659
  0
CIRCLE
  5
45E
100
AcDbEntity
  8
M79
  6
CONTINUOUS
370
25
 62
     7
100
AcDbCircle
 10
302.493366
 20
30.001659
 40
1.25
  0
LINE
  5
45F
100
AcDbEntity
  8
M79
  6
CONTINUOUS
370
25
 62
     7
100
AcDbLine
 10
313.342243
 20
32.501659
 11
313.342243
 21
27.501659
  0
LINE
  5
460
100
AcDbEntity
  8
M79
  6
DASHDOT
370
13
 62
     7
100
AcDbLine
 10
299.09737
 20
30.001659
 11
315.354218
 21
30.001659
  0
LINE
  5
461
100
AcDbEntity
  8
M79
  6
DASHDOT
370
13
 62
     7
100
AcDbLine
 10
302.493366
 20
26.945247
 11
302.493366
 21
33.62408
  0
LINE
  5
462
100
AcDbEntity
  8
M79
  6
CONTINUOUS
370
25
 62
     7
100
AcDbLine
 10
308.078572
 20
31.251659
 11
313.342243
 21
32.501659
  0
CIRCLE
  5
463
100
AcDbEntity
  8
M79
  6
CONTINUOUS
370
25
 62
     7
100
AcDbCircle
 10
302.493366
 20
30.001659
 40
2.5
  0
TEXT
  5
464
100
AcDbEntity
  8
M79
 62
     7
100
AcDbText
 10
298.321647
 20
17.727871
 40
4.2
  1
Ｈ
 41
0.515873
  7
STANDARD
100
AcDbText
  0
TEXT
  5
465
100
AcDbEntity
  8
M79
 62
     7
100
AcDbText
 10
322.679892
 20
14.006361
 40
2.9
  1
ｐ
 41
0.603448
  7
STANDARD
100
AcDbText
  0
TEXT
  5
466
100
AcDbEntity
  8
M79
 62
     7
100
AcDbText
 10
321.279813
 20
13.906359
 40
2.9
  1
ａ
 41
0.603448
  7
STANDARD
100
AcDbText
  0
TEXT
  5
467
100
AcDbEntity
  8
M79
 62
     7
100
AcDbText
 10
319.879855
 20
13.906359
 40
2.9
  1
Ｊ
 41
0.603448
  7
STANDARD
100
AcDbText
  0
TEXT
  5
468
100
AcDbEntity
  8
M79
 62
     7
100
AcDbText
 10
316.779853
 20
13.906361
 40
2.9
  1
ｏ
 41
0.603448
  7
STANDARD
100
AcDbText
  0
TEXT
  5
469
100
AcDbEntity
  8
M79
 62
     7
100
AcDbText
 10
315.379773
 20
13.906361
 40
2.9
  1
ｙ
 41
0.603448
  7
STANDARD
100
AcDbText
  0
TEXT
  5
46A
100
AcDbEntity
  8
M79
 62
     7
100
AcDbText
 10
313.87987
 20
13.906361
 40
2.9
  1
ｋ
 41
0.603448
  7
STANDARD
100
AcDbText
  0
TEXT
  5
46B
100
AcDbEntity
  8
M79
 62
     7
100
AcDbText
 10
312.379815
 20
13.906361
 40
2.9
  1
ｏ
 41
0.603448
  7
STANDARD
100
AcDbText
  0
TEXT
  5
46C
100
AcDbEntity
  8
M79
 62
     7
100
AcDbText
 10
310.979857
 20
13.906361
 40
2.9
  1
Ｔ
 41
0.603448
  7
STANDARD
100
AcDbText
  0
TEXT
  5
46D
100
AcDbEntity
  8
M79
 62
     7
100
AcDbText
 10
324.279801
 20
13.906359
 40
2.9
  1
ａ
 41
0.603448
  7
STANDARD
100
AcDbText
  0
TEXT
  5
46E
100
AcDbEntity
  8
M79
 62
     7
100
AcDbText
 10
325.739766
 20
13.906359
 40
2.9
  1
ｎ
 41
0.603448
  7
STANDARD
100
AcDbText
  0
TEXT
  5
46F
100
AcDbEntity
  8
M79
 62
     7
100
AcDbText
 10
299.621647
 20
17.727871
 40
4.2
  1
ｉ
 41
0.515873
  7
STANDARD
100
AcDbText
  0
TEXT
  5
470
100
AcDbEntity
  8
M79
 62
     7
100
AcDbText
 10
302.221647
 20
17.727871
 40
4.2
  1
ａ
 41
0.515873
  7
STANDARD
100
AcDbText
  0
TEXT
  5
471
100
AcDbEntity
  8
M79
 62
     7
100
AcDbText
 10
300.921647
 20
17.727871
 40
4.2
  1
ｔ
 41
0.515873
  7
STANDARD
100
AcDbText
  0
TEXT
  5
472
100
AcDbEntity
  8
M79
 62
     7
100
AcDbText
 10
303.521647
 20
17.727871
 40
4.2
  1
ｃ
 41
0.515873
  7
STANDARD
100
AcDbText
  0
TEXT
  5
473
100
AcDbEntity
  8
M79
 62
     7
100
AcDbText
 10
306.121647
 20
17.727871
 40
4.2
  1
ｉ
 41
0.515873
  7
STANDARD
100
AcDbText
  0
TEXT
  5
474
100
AcDbEntity
  8
M79
 62
     7
100
AcDbText
 10
304.821647
 20
17.727871
 40
4.2
  1
ｈ
 41
0.515873
  7
STANDARD
100
AcDbText
  0
TEXT
  5
475
100
AcDbEntity
  8
M79
 62
     7
100
AcDbText
 10
308.421647
 20
17.727871
 40
4.2
  1
Ｇ
 41
0.515873
  7
STANDARD
100
AcDbText
  0
TEXT
  5
476
100
AcDbEntity
  8
M79
 62
     7
100
AcDbText
 10
309.721647
 20
17.727871
 40
4.2
  1
ｌ
 41
0.515873
  7
STANDARD
100
AcDbText
  0
TEXT
  5
477
100
AcDbEntity
  8
M79
 62
     7
100
AcDbText
 10
311.021647
 20
17.727871
 40
4.2
  1
ｏ
 41
0.515873
  7
STANDARD
100
AcDbText
  0
TEXT
  5
478
100
AcDbEntity
  8
M79
 62
     7
100
AcDbText
 10
312.321647
 20
17.727871
 40
4.2
  1
ｂ
 41
0.515873
  7
STANDARD
100
AcDbText
  0
TEXT
  5
479
100
AcDbEntity
  8
M79
 62
     7
100
AcDbText
 10
313.621647
 20
17.727871
 40
4.2
  1
ａ
 41
0.515873
  7
STANDARD
100
AcDbText
  0
TEXT
  5
47A
100
AcDbEntity
  8
M79
 62
     7
100
AcDbText
 10
314.921648
 20
17.727871
 40
4.2
  1
ｌ
 41
0.515873
  7
STANDARD
100
AcDbText
  0
TEXT
  5
47B
100
AcDbEntity
  8
M79
 62
     7
100
AcDbText
 10
317.221647
 20
17.727871
 40
4.2
  1
Ｌ
 41
0.515873
  7
STANDARD
100
AcDbText
  0
TEXT
  5
47C
100
AcDbEntity
  8
M79
 62
     7
100
AcDbText
 10
318.521646
 20
17.727871
 40
4.2
  1
ｉ
 41
0.515873
  7
STANDARD
100
AcDbText
  0
TEXT
  5
47D
100
AcDbEntity
  8
M79
 62
     7
100
AcDbText
 10
319.821647
 20
17.727871
 40
4.2
  1
ｆ
 41
0.515873
  7
STANDARD
100
AcDbText
  0
TEXT
  5
47E
100
AcDbEntity
  8
M79
 62
     7
100
AcDbText
 10
321.121646
 20
17.727871
 40
4.2
  1
ｅ
 41
0.515873
  7
STANDARD
100
AcDbText
  0
TEXT
  5
47F
100
AcDbEntity
  8
M79
 62
     7
100
AcDbText
 10
323.421646
 20
17.727871
 40
4.2
  1
Ｓ
 41
0.515873
  7
STANDARD
100
AcDbText
  0
TEXT
  5
480
100
AcDbEntity
  8
M79
 62
     7
100
AcDbText
 10
324.721645
 20
17.727871
 40
4.2
  1
ｏ
 41
0.515873
  7
STANDARD
100
AcDbText
  0
TEXT
  5
481
100
AcDbEntity
  8
M79
 62
     7
100
AcDbText
 10
326.021646
 20
17.727871
 40
4.2
  1
ｌ
 41
0.515873
  7
STANDARD
100
AcDbText
  0
TEXT
  5
482
100
AcDbEntity
  8
M79
 62
     7
100
AcDbText
 10
327.321645
 20
17.727871
 40
4.2
  1
ｕ
 41
0.515873
  7
STANDARD
100
AcDbText
  0
TEXT
  5
483
100
AcDbEntity
  8
M79
 62
     7
100
AcDbText
 10
328.621646
 20
17.727871
 40
4.2
  1
ｔ
 41
0.515873
  7
STANDARD
100
AcDbText
  0
TEXT
  5
484
100
AcDbEntity
  8
M79
 62
     7
100
AcDbText
 10
329.921646
 20
17.727871
 40
4.2
  1
ｉ
 41
0.515873
  7
STANDARD
100
AcDbText
  0
TEXT
  5
485
100
AcDbEntity
  8
M79
 62
     7
100
AcDbText
 10
331.221645
 20
17.727871
 40
4.2
  1
ｏ
 41
0.515873
  7
STANDARD
100
AcDbText
  0
TEXT
  5
486
100
AcDbEntity
  8
M79
 62
     7
100
AcDbText
 10
332.521644
 20
17.727871
 40
4.2
  1
ｎ
 41
0.515873
  7
STANDARD
100
AcDbText
  0
TEXT
  5
487
100
AcDbEntity
  8
M79
 62
     7
100
AcDbText
 10
333.821643
 20
17.727871
 40
4.2
  1
ｓ
 41
0.515873
  7
STANDARD
100
AcDbText
  0
TEXT
  5
488
100
AcDbEntity
  8
M79
 62
     7
100
AcDbText
 10
335.121643
 20
17.727871
 40
4.2
  1
，
 41
0.515873
  7
STANDARD
100
AcDbText
  0
TEXT
  5
489
100
AcDbEntity
  8
M79
 62
     7
100
AcDbText
 10
336.121643
 20
17.727871
 40
4.2
  1
Ｉ
 41
0.515873
  7
STANDARD
100
AcDbText
  0
TEXT
  5
48A
100
AcDbEntity
  8
M79
 62
     7
100
AcDbText
 10
337.421642
 20
17.727871
 40
4.2
  1
ｎ
 41
0.515873
  7
STANDARD
100
AcDbText
  0
TEXT
  5
48B
100
AcDbEntity
  8
M79
 62
     7
100
AcDbText
 10
340.02164
 20
17.727871
 40
4.2
  1
．
 41
0.515873
  7
STANDARD
100
AcDbText
  0
TEXT
  5
48C
100
AcDbEntity
  8
M79
 62
     7
100
AcDbText
 10
338.721641
 20
17.727871
 40
4.2
  1
ｃ
 41
0.515873
  7
STANDARD
100
AcDbText
  0
ENDSEC
  0
SECTION
  2
OBJECTS
  0
DICTIONARY
  5
C
100
AcDbDictionary
  3
ACAD_GROUP
350
D
  3
ACAD_MLINESTYLE
350
E
  0
DICTIONARY
  5
D
102
{ACAD_REACTORS
330
C
102
}
100
AcDbDictionary
  0
DICTIONARY
  5
E
102
{ACAD_REACTORS
330
C
102
}
100
AcDbDictionary
  3
STANDARD
350
13
  0
DICTIONARY
  5
4D
330
4C
100
AcDbDictionary
280
     1
281
     1
  3
ACAD_DIMASSOC
360
4E
  0
DIMASSOC
  5
4E
102
{ACAD_REACTORS
330
4D
102
}
330
4D
100
AcDbDimAssoc
330
4C
 90
        1
 70
     0
 71
     0
  1
AcDbOsnapPointRef
 72
     10
331
4F
 73
     2
 91
        0
 40
0.677225
 10
190.472488
 20
92.620148
 30
0.000000
 75
     0
  0
DICTIONARY
  5
51
330
50
100
AcDbDictionary
280
     1
281
     1
  3
ACAD_DIMASSOC
360
52
  0
DIMASSOC
  5
52
102
{ACAD_REACTORS
330
51
102
}
330
51
100
AcDbDimAssoc
330
50
 90
        1
 70
     0
 71
     0
  1
AcDbOsnapPointRef
 72
     10
331
53
 73
     2
 91
        0
 40
0.500000
 10
195.625473
 20
89.462669
 30
0.000000
 75
     0
  0
DICTIONARY
  5
55
330
54
100
AcDbDictionary
280
     1
281
     1
  3
ACAD_DIMASSOC
360
56
  0
DIMASSOC
  5
56
102
{ACAD_REACTORS
330
55
102
}
330
55
100
AcDbDimAssoc
330
54
 90
        1
 70
     0
 71
     0
  1
AcDbOsnapPointRef
 72
     10
331
57
 73
     2
 91
        0
 40
0.693692
 10
201.257233
 20
86.304161
 30
0.000000
 75
     0
  0
MLINESTYLE
  5
13
102
{ACAD_REACTORS
330
E
102
}
100
AcDbMlineStyle
  2
STANDARD
 70
     0
  3

 62
     0
 51
90.0
 52
90.0
 71
     2
 49
0.5
 62
   256
  6
BYLAYER
 49
-0.5
 62
   256
  6
BYLAYER
  0
ENDSEC
  0
EOF
