  0
SECTION
  2
HEADER
  9
$ACADVER
  1
AC1015
  9
$INSBASE
 10
0.000000
 20
0.000000
 30
0.0
  9
$VIEWCTR
 10
7.531722
 20
4.5
  9
$VIEWSIZE
 40
9.0
  9
$SNAPMODE
 70
     0
  9
$SNAPUNIT
 10
1.0
 20
1.0
  9
$SNAPBASE
 10
0.0
 20
0.0
  9
$SNAPANG
 50
0.0
  9
$SNAPSTYLE
 70
     0
  9
$SNAPISOPAIR
 70
     0
  9
$GRIDMODE
 70
     0
  9
$GRIDUNIT
 10
0.0
 20
0.0
  9
$ORTHOMODE
 70
     0
  9
$REGENMODE
 70
     1
  9
$FILLMODE
 70
     1
  9
$QTEXTMODE
 70
     0
  9
$DRAGMODE
 70
     2
  9
$LTSCALE
  40
     1.000000
  9
$OSMODE
 70
     0
  9
$ATTMODE
 70
     1
  9
$TEXTSIZE
 40
0.2
  9
$TRACEWID
 40
0.05
  9
$TEXTSTYLE
  7
STANDARD
  9
$CELTYPE
  6
BYLAYER
  9
$CECOLOR
 62
   256
  9
$DIMSCALE
 40
1.0
  9
$DIMASZ
 40
0.18
  9
$DIMEXO
 40
0.0625
  9
$DIMDLI
 40
0.38
  9
$DIMRND
 40
0.0
  9
$DIMDLE
 40
0.0
  9
$DIMEXE
 40
0.18
  9
$DIMTP
 40
0.0
  9
$DIMTM
 40
0.0
  9
$DIMTXT
 40
0.18
  9
$DIMCEN
 40
0.09
  9
$DIMTSZ
 40
0.0
  9
$DIMADEC
 70
     0
  9
$DIMALTRND
 40
0.000000
  9
$DIMAZIN
 70
     0
  9
$DIMDSEP
 70
    46
  9
$DIMATFIT
 70
     3
  9
$DIMFRAC
 70
     0
  9
$DIMLDRBLK
  1

  9
$DIMLUNIT
 70
     2
  9
$DIMLWD
 70
   13
  9
$DIMLWE
 70
   13
  9
$DIMTMOVE
 70
     0
  9
$CELWEIGHT
370
    25
  9
$LWDISPLAY
290
    1
  9
$EXTNAMES
290
    1
  9
$DIMTOL
 70
     0
  9
$DIMLIM
 70
     0
  9
$DIMTIH
 70
     1
  9
$DIMTOH
 70
     1
  9
$DIMSE1
 70
     0
  9
$DIMSE2
 70
     0
  9
$DIMTAD
 70
     0
  9
$DIMZIN
 70
     0
  9
$DIMBLK
  1

  9
$LUNITS
 70
     2
  9
$LUPREC
 70
     4
  9
$AXISMODE
 70
     0
  9
$AXISUNIT
 10
0.0
 20
0.0
  9
$SKETCHINC
 40
0.1
  9
$FILLETRAD
 40
0.0
  9
$AUNITS
 70
     0
  9
$AUPREC
 70
     0
  9
$MENU
  1
ACAD
  9
$ELEVATION
 40
0.0
  9
$THICKNESS
 40
0.0
  9
$VIEWDIR
 10
0.0
 20
0.0
 30
1.0
  9
$LIMCHECK
 70
     0
  9
$BLIPMODE
 70
     1
  9
$CHAMFERA
 40
0.0
  9
$CHAMFERB
 40
0.0
  9
$FASTZOOM
 70
     1
  9
$SKPOLY
 70
     0
  9
$TDCREATE
 40
0000000.0000000000
  9
$TDUPDATE
 40
0000000.0000000000
  9
$TDINDWG
 40
0.0000000000
  9
$TDUSRTIMER
 40
0.0000000000
  9
$USRTIMER
 70
     1
  9
$ANGBASE
 50
0.0
  9
$ANGDIR
 70
     0
  9
$PDMODE
 70
     0
  9
$PDSIZE
 40
0.0
  9
$PLINEWID
 40
0.0
  9
$COORDS
 70
     0
  9
$USERI1
 70
     0
  9
$USERI2
 70
     0
  9
$USERI3
 70
     0
  9
$USERI4
 70
     0
  9
$USERI5
 70
     0
  9
$USERR1
 40
0.0
  9
$USERR2
 40
0.0
  9
$USERR3
 40
0.0
  9
$USERR4
 40
0.0
  9
$USERR5
 40
0.0
  9
$CLAYER
  8
M0
  9
$EXTMIN
 10
0.0
 20
0.0
  9
$EXTMAX
 10
420.0
 20
297.0
  9
$LIMMIN
 10
0.0
 20
0.0
  9
$LIMMAX
 10
420.0
 20
297.0
  9
$HANDSEED
  5
5AC
  0
ENDSEC
  0
SECTION
  2
CLASSES
  0
CLASS
  1
DIMASSOC
  2
AcDbDimAssoc
  3
"AcDbDimAssoc|Product Desc:     AcDim ARX App For Dimension|Company:          Autodesk, Inc.|WEB Address:      www.autodesk.com"
 90
        0
280
     0
281
     0
  0
ENDSEC
  0
SECTION
  2
TABLES
  0
TABLE
  2
VPORT
  5
8
100
AcDbSymbolTable
 70
     2
  0
VPORT
  5
14
100
AcDbSymbolTableRecord
100
AcDbViewportTableRecord
  2
*ACTIVE
 70
     0
 10
0.0
 20
0.0
 11
1.0
 21
1.0
 12
484.0
 22
297.0
 13
0.0
 23
0.0
 14
1.0
 24
1.0
 15
0.0
 25
0.0
 16
0.0
 26
0.0
 36
1.0
 17
0.0
 27
0.0
 37
0.0
 40
594.0
 41
2.0
 42
50.0
 43
0.0
 44
0.0
 50
0.0
 51
0.0
 71
     0
 72
   100
 73
     1
 74
     1
 75
     0
 76
     0
 77
     0
 78
     0
  0
ENDTAB
  0
TABLE
  2
LTYPE
  5
5
100
AcDbSymbolTable
 70
     5
  0
LTYPE
  5
15
100
AcDbSymbolTableRecord
100
AcDbLinetypeTableRecord
  2
BYBLOCK
 70
     0
  3

 72
    65
 73
     0
 40
0.0
  0
LTYPE
  5
16
100
AcDbSymbolTableRecord
100
AcDbLinetypeTableRecord
  2
BYLAYER
 70
     0
  3

 72
    65
 73
     0
 40
0.0
  0
LTYPE
  5
17
100
AcDbSymbolTableRecord
100
AcDbLinetypeTableRecord
  2
CONTINUOUS
 70
    64
  3
Solid line
 72
    65
 73
     0
 40
0.0
  0
LTYPE
  5
18
100
AcDbSymbolTableRecord
100
AcDbLinetypeTableRecord
  2
DASHED
 70
    64
  3
__ __ __ __ __ __ __ __ __ __ __ __ __ __ __ __
 72
    65
 73
     2
 40
0.75
 49
0.5
 74
     0
 49
-0.25
 74
     0
  0
LTYPE
  5
19
100
AcDbSymbolTableRecord
100
AcDbLinetypeTableRecord
  2
DASHDOT
 70
    64
  3
__ . __ . __ . __ . __ . __ . __ . __ . __ . __
 72
    65
 73
     4
 40
1.0
 49
0.5
 74
     0
 49
-0.25
 74
     0
 49
0.0
 74
     0
 49
-0.25
 74
     0
  0
LTYPE
  5
1A
100
AcDbSymbolTableRecord
100
AcDbLinetypeTableRecord
  2
DIVIDE
 70
    64
  3
____ . . ____ . . ____ . . ____ . . ____ . . __
 72
    65
 73
     6
 40
1.25
 49
0.5
 74
     0
 49
-0.25
 74
     0
 49
0.0
 74
     0
 49
-0.25
 74
     0
 49
0.0
 74
     0
 49
-0.25
 74
     0
  0
LTYPE
  5
1B
100
AcDbSymbolTableRecord
100
AcDbLinetypeTableRecord
  2
DOT
 70
    64
  3
. . . . . . . . . . . . . . . . . . . . . . . .
 72
    65
 73
     2
 40
0.25
 49
0.0
 74
     0
 49
-0.25
 74
     0
  0
ENDTAB
  0
TABLE
  2
LAYER
  5
2
100
AcDbSymbolTable
 70
   102
  0
LAYER
  5
F
100
AcDbSymbolTableRecord
100
AcDbLayerTableRecord
  2
0
 70
     0
 62
     7
  6
CONTINUOUS
370
     -3
390
F
  0
LAYER
  5
1C
100
AcDbSymbolTableRecord
100
AcDbLayerTableRecord
  2
M0
 70
     0
 62
     3
  6
CONTINUOUS
370
     -3
390
F
  0
LAYER
  5
1D
100
AcDbSymbolTableRecord
100
AcDbLayerTableRecord
  2
M69
 70
     0
 62
     7
  6
CONTINUOUS
370
     -3
390
F
  0
LAYER
  5
1E
100
AcDbSymbolTableRecord
100
AcDbLayerTableRecord
  2
M71
 70
     0
 62
     7
  6
CONTINUOUS
370
     -3
390
F
  0
LAYER
  5
1F
100
AcDbSymbolTableRecord
100
AcDbLayerTableRecord
  2
M73
 70
     0
 62
     7
  6
CONTINUOUS
370
     -3
390
F
  0
LAYER
  5
20
100
AcDbSymbolTableRecord
100
AcDbLayerTableRecord
  2
M74
 70
     0
 62
     7
  6
CONTINUOUS
370
     -3
390
F
  0
LAYER
  5
21
100
AcDbSymbolTableRecord
100
AcDbLayerTableRecord
  2
M75
 70
     0
 62
     7
  6
CONTINUOUS
370
     -3
390
F
  0
LAYER
  5
22
100
AcDbSymbolTableRecord
100
AcDbLayerTableRecord
  2
M79
 70
     0
 62
     7
  6
CONTINUOUS
370
     -3
390
F
  0
LAYER
  5
23
100
AcDbSymbolTableRecord
100
AcDbLayerTableRecord
  2
DD0
 70
     0
 62
     7
  6
CONTINUOUS
370
     -3
390
F
  0
ENDTAB
  0
TABLE
  2
STYLE
  5
3
100
AcDbSymbolTable
 70
     2
  0
STYLE
  5
10
100
AcDbSymbolTableRecord
100
AcDbTextStyleTableRecord
  2
STANDARD
 70
     0
 40
0.0
 41
1.0
 50
0.0
 71
     0
 42
0.2
  3
txt
  4
BIGFONT
  0
ENDTAB
  0
TABLE
  2
VIEW
  5
6
100
AcDbSymbolTable
 70
     0
  0
ENDTAB
  0
TABLE
  2
UCS
  5
7
100
AcDbSymbolTable
 70
     0
  0
ENDTAB
  0
TABLE
  2
APPID
  5
9
100
AcDbSymbolTable
 70
     1
  0
APPID
  5
11
100
AcDbSymbolTableRecord
100
AcDbRegAppTableRecord
  2
ACAD
 70
     0
  0
ENDTAB
  0
TABLE
  2
DIMSTYLE
  5
A
100
AcDbSymbolTable
 70
     2
100
AcDbDimStyleTable
 71
     1
  0
DIMSTYLE
105
6A
100
AcDbSymbolTableRecord
100
AcDbDimStyleTableRecord
  2
STANDARD
 70
     0
  3

  4

  5

  6
_OPEN
  7
_OPEN
 40
1.0
 41
3.0
 42
0.0
 43
8.0
 44
1.5
 45
0.0
 46
0.0
 47
0.0
 48
0.0
140
3.2
141
0.09
142
0.0
143
0.03937
144
1.0
145
0.0
146
1.0
147
1.0
148
0.000000
 71
     0
 72
     0
 73
     1
 74
     1
 75
     0
 76
     0
 77
     3
 78
     8
170
     0
171
     2
172
     0
173
     1
174
     0
175
     0
176
     0
177
     0
178
     0
270
     2
271
     2
272
     4
273
     2
274
     2
340
10
275
     0
278
    46
280
     0
281
     0
282
     0
283
     1
284
     0
285
     0
286
     0
287
     3
288
     0
371
   13
372
   13
  0
DIMSTYLE
105
6B
100
AcDbSymbolTableRecord
100
AcDbDimStyleTableRecord
  2
LEADSTYL
 70
     0
  3

  4

  5

  6
_OPEN
  7
_OPEN
 40
1.0
 41
3.0
 42
0.0625
 43
0.38
 44
0.18
 45
0.0
 46
0.0
 47
0.0
 48
0.0
140
3.2
141
0.09
142
0.0
143
25.4
144
1.0
145
0.0
146
1.0
147
1.0
 71
     0
 72
     0
 73
     1
 74
     1
 75
     0
 76
     0
 77
     0
 78
     0
170
     0
171
     2
172
     0
173
     1
174
     0
175
     0
176
     0
177
     0
178
     0
270
     2
271
     4
272
     4
273
     2
274
     2
340
10
275
     0
280
     0
281
     0
282
     0
283
     1
284
     0
285
     0
286
     0
287
     3
288
     0
  0
ENDTAB
  0
TABLE
  2
BLOCK_RECORD
  5
1
100
AcDbSymbolTable
 70
     6
  0
BLOCK_RECORD
  5
24
100
AcDbSymbolTableRecord
100
AcDbBlockTableRecord
  2
*MODEL_SPACE
  0
BLOCK_RECORD
  5
27
100
AcDbSymbolTableRecord
100
AcDbBlockTableRecord
  2
*PAPER_SPACE
  0
BLOCK_RECORD
  5
2A
100
AcDbSymbolTableRecord
100
AcDbBlockTableRecord
  2
_NONE
  0
BLOCK_RECORD
  5
2E
100
AcDbSymbolTableRecord
100
AcDbBlockTableRecord
  2
_OPEN
  0
BLOCK_RECORD
  5
34
100
AcDbSymbolTableRecord
100
AcDbBlockTableRecord
  2
_CLOSED
  0
BLOCK_RECORD
  5
3B
100
AcDbSymbolTableRecord
100
AcDbBlockTableRecord
  2
_ORIGIN
  0
BLOCK_RECORD
  5
40
100
AcDbSymbolTableRecord
100
AcDbBlockTableRecord
  2
_DOT
  0
BLOCK_RECORD
  5
48
100
AcDbSymbolTableRecord
100
AcDbBlockTableRecord
  2
_OBLIQUE
  0
ENDTAB
  0
ENDSEC
  0
SECTION
  2
BLOCKS
  0
BLOCK
  5
25
100
AcDbEntity
  8
0
100
AcDbBlockBegin
  2
*MODEL_SPACE
 70
     0
 10
0.0
 20
0.0
 30
0.0
  3
*MODEL_SPACE
  1

  0
ENDBLK
  5
26
100
AcDbEntity
  8
0
100
AcDbBlockEnd
  0
BLOCK
  5
28
100
AcDbEntity
 67
     1
  8
0
100
AcDbBlockBegin
  2
*PAPER_SPACE
 70
     0
 10
0.0
 20
0.0
 30
0.0
  3
*PAPER_SPACE
  1

  0
ENDBLK
  5
29
100
AcDbEntity
 67
     1
  8
0
100
AcDbBlockEnd
  0
BLOCK
  5
2B
100
AcDbEntity
  8
0
100
AcDbBlockBegin
  2
_NONE
 70
     0
 10
0.0
 20
0.0
  0
CIRCLE
  5
2C
100
AcDbEntity
  8
0
 62
     0
370
13
100
AcDbCircle
 10
0.0
 20
0.0
 40
0.25
  0
ENDBLK
  5
2D
100
AcDbEntity
  8
0
100
AcDbBlockEnd
  0
BLOCK
  5
2F
100
AcDbEntity
  8
0
100
AcDbBlockBegin
  2
_OPEN
 70
     0
 10
0.0
 20
0.0
  0
LINE
  5
30
100
AcDbEntity
  8
0
 62
     0
370
13
100
AcDbLine
 10
-0.965926
 20
0.258819
 11
0.0
 21
0.0
  0
LINE
  5
31
100
AcDbEntity
  8
0
 62
     0
370
13
100
AcDbLine
 10
0.0
 20
0.0
 11
-0.965926
 21
-0.258819
  0
LINE
  5
32
100
AcDbEntity
  8
0
 62
     0
370
13
100
AcDbLine
 10
0.0
 20
0.0
 11
-1.0
 21
0.0
  0
ENDBLK
  5
33
100
AcDbEntity
  8
0
100
AcDbBlockEnd
  0
BLOCK
  5
35
100
AcDbEntity
  8
0
100
AcDbBlockBegin
  2
_CLOSED
 70
     0
 10
0.0
 20
0.0
  0
LINE
  5
36
100
AcDbEntity
  8
0
 62
     0
370
13
100
AcDbLine
 10
-0.965926
 20
0.258819
 11
0.0
 21
0.0
  0
LINE
  5
37
100
AcDbEntity
  8
0
 62
     0
370
13
100
AcDbLine
 10
0.0
 20
0.0
 11
-0.965926
 21
-0.258819
  0
LINE
  5
38
100
AcDbEntity
  8
0
 62
     0
370
13
100
AcDbLine
 10
-0.965926
 20
0.258819
 11
-0.965926
 21
-0.258819
  0
LINE
  5
39
100
AcDbEntity
  8
0
 62
     0
370
13
100
AcDbLine
 10
0.0
 20
0.0
 11
-1.0
 21
0.0
  0
ENDBLK
  5
3A
100
AcDbEntity
  8
0
100
AcDbBlockEnd
  0
BLOCK
  5
3C
100
AcDbEntity
  8
0
100
AcDbBlockBegin
  2
_ORIGIN
 70
     0
 10
0.0
 20
0.0
  0
CIRCLE
  5
3D
100
AcDbEntity
  8
0
 62
     0
370
13
100
AcDbCircle
 10
0.0
 20
0.0
 40
0.5
  0
LINE
  5
3E
100
AcDbEntity
  8
0
 62
     0
370
13
100
AcDbLine
 10
0.0
 20
0.0
 11
-1.0
 21
0.0
  0
ENDBLK
  5
3F
100
AcDbEntity
  8
0
100
AcDbBlockEnd
  0
BLOCK
  5
41
100
AcDbEntity
  8
0
100
AcDbBlockBegin
  2
_DOT
 70
     0
 10
0.0
 20
0.0
  0
POLYLINE
  5
42
100
AcDbEntity
  8
0
 62
     0
100
AcDb2dPolyline
 66
     1
 70
     1
 40
0.5
 41
0.5
  0
VERTEX
  5
43
100
AcDbEntity
  8
0
 62
     0
100
AcDbVertex
100
AcDb2dVertex
 10
-0.25
 20
0.0
 42
1.0
  0
VERTEX
  5
44
100
AcDbEntity
  8
0
 62
     0
100
AcDbVertex
100
AcDb2dVertex
 10
0.25
 20
0.0
 42
1.0
  0
SEQEND
  5
45
100
AcDbEntity
  8
0
 62
     0
  0
LINE
  5
46
100
AcDbEntity
  8
0
 62
     0
370
13
100
AcDbLine
 10
-0.5
 20
0.0
 11
-1.0
 21
0.0
  0
ENDBLK
  5
47
100
AcDbEntity
  8
0
100
AcDbBlockEnd
  0
BLOCK
  5
49
100
AcDbEntity
  8
0
100
AcDbBlockBegin
  2
_OBLIQUE
 70
     0
 10
0.0
 20
0.0
  0
LINE
  5
4A
100
AcDbEntity
  8
0
 62
     0
370
13
100
AcDbLine
 10
-0.353553
 20
-0.353553
 11
0.353553
 21
0.353553
  0
ENDBLK
  5
4B
100
AcDbEntity
  8
0
100
AcDbBlockEnd
  0
ENDSEC
  0
SECTION
  2
ENTITIES
  0
LEADER
  5
4C
102
{ACAD_XDICTIONARY
360
4D
102
}
102
{ACAD_REACTORS
330
4E
102
}
330
1F
100
AcDbEntity
  8
DD0
100
AcDbLeader
  3
LEADSTYL
 76
     3
 10
248.543472
 20
65.248817
 10
221.925797
 20
43.068268
 10
158.821793
 20
43.068268
340
50
 77
     7
1001
ACAD
1000
DSTYLE
1002
{
1070
   341
1005
2E
1070
   372
1070
   13
1070
   371
1070
   13
1002
}
  0
TEXT
  5
50
100
AcDbEntity
  8
DD0
100
AcDbText
 10
162.388443
 20
44.068268
 40
3.2
  1
必ず色を合わせて接続してください
 41
0.833333
  7
STANDARD
100
AcDbText
  0
TEXT
  5
51
100
AcDbEntity
  8
DD0
100
AcDbText
 10
213.389767
 20
45.988266
 40
1.92
  1
※
 41
0.833333
  7
STANDARD
100
AcDbText
  0
TEXT
  5
52
100
AcDbEntity
  8
DD0
100
AcDbText
 10
215.508438
 20
44.068268
 40
3.2
  1
　
 41
0.833333
  7
STANDARD
100
AcDbText
  0
LEADER
  5
53
102
{ACAD_XDICTIONARY
360
54
102
}
102
{ACAD_REACTORS
330
55
102
}
330
1F
100
AcDbEntity
  8
DD0
100
AcDbLeader
  3
LEADSTYL
 76
     2
 10
249.205582
 20
175.903641
 10
272.197357
 20
153.773727
 77
     7
1001
ACAD
1000
DSTYLE
1002
{
1070
   341
1005
2E
1070
   372
1070
   13
1070
   371
1070
   13
1002
}
  0
LEADER
  5
57
102
{ACAD_XDICTIONARY
360
58
102
}
102
{ACAD_REACTORS
330
59
102
}
330
1F
100
AcDbEntity
  8
DD0
100
AcDbLeader
  3
LEADSTYL
 76
     3
 10
249.205582
 20
192.849045
 10
272.197357
 20
153.773712
 10
306.797333
 20
153.773712
340
5B
 77
     7
1001
ACAD
1000
DSTYLE
1002
{
1070
   341
1005
2E
1070
   372
1070
   13
1070
   371
1070
   13
1002
}
  0
TEXT
  5
5B
100
AcDbEntity
  8
DD0
100
AcDbText
 10
275.835687
 20
154.773712
 40
4.0
  1
凍結防止ヒータ
 41
0.833333
  7
STANDARD
100
AcDbText
  0
LEADER
  5
5C
102
{ACAD_XDICTIONARY
360
5D
102
}
102
{ACAD_REACTORS
330
5E
102
}
330
1F
100
AcDbEntity
  8
DD0
100
AcDbLeader
  3
LEADSTYL
 76
     3
 10
258.304474
 20
230.873856
 10
271.093872
 20
179.822723
 10
353.693848
 20
179.822723
340
60
 77
     7
1001
ACAD
1000
DSTYLE
1002
{
1070
   341
1005
2E
1070
   372
1070
   13
1070
   371
1070
   13
1002
}
  0
TEXT
  5
60
100
AcDbEntity
  8
DD0
100
AcDbText
 10
274.732202
 20
180.822723
 40
4.0
  1
バイメタルサーモ
 41
0.833333
  7
STANDARD
100
AcDbText
  0
TEXT
  5
61
100
AcDbEntity
  8
DD0
100
AcDbText
 10
274.732202
 20
174.822723
 40
4.0
  1
（ＯＮ：５±３℃　ＯＦＦ：１３±５℃）
 41
0.833333
  7
STANDARD
100
AcDbText
  0
LEADER
  5
62
102
{ACAD_XDICTIONARY
360
63
102
}
102
{ACAD_REACTORS
330
64
102
}
330
1F
100
AcDbEntity
  8
DD0
100
AcDbLeader
  3
LEADSTYL
 76
     2
 10
230.746719
 20
68.407326
 10
221.925797
 20
43.068268
 77
     7
1001
ACAD
1000
DSTYLE
1002
{
1070
   341
1005
2E
1070
   372
1070
   13
1070
   371
1070
   13
1002
}
  0
LEADER
  5
66
102
{ACAD_XDICTIONARY
360
67
102
}
102
{ACAD_REACTORS
330
68
102
}
330
1F
100
AcDbEntity
  8
DD0
100
AcDbLeader
  3
LEADSTYL
 76
     2
 10
211.369598
 20
71.564804
 10
221.925797
 20
43.068268
 77
     7
1001
ACAD
1000
DSTYLE
1002
{
1070
   341
1005
2E
1070
   372
1070
   13
1070
   371
1070
   13
1002
}
  0
TEXT
  5
6C
100
AcDbEntity
  8
M0
 62
     7
100
AcDbText
 10
351.604892
 20
28.178143
 40
4.5
  1
ＲＨＫ－Ｔ５６ＣＤＫ回路・配線図
 41
0.416667
  7
STANDARD
100
AcDbText
  0
LINE
  5
6D
100
AcDbEntity
  8
M0
  6
CONTINUOUS
370
13
100
AcDbLine
 10
75.569732
 20
181.001545
 11
77.823138
 21
183.254951
  0
LINE
  5
6E
100
AcDbEntity
  8
M0
  6
CONTINUOUS
370
13
100
AcDbLine
 10
83.546597
 20
187.625422
 11
83.546597
 21
176.826274
  0
LINE
  5
6F
100
AcDbEntity
  8
M0
  6
CONTINUOUS
370
13
100
AcDbLine
 10
77.972174
 20
181.001545
 11
80.22558
 21
183.254951
  0
LINE
  5
70
100
AcDbEntity
  8
M0
  6
CONTINUOUS
370
13
100
AcDbLine
 10
74.922285
 20
182.225848
 11
83.546597
 21
182.225848
  0
LINE
  5
71
100
AcDbEntity
  8
M0
  6
CONTINUOUS
370
13
100
AcDbLine
 10
80.374616
 20
181.001545
 11
82.628022
 21
183.254951
  0
LINE
  5
72
100
AcDbEntity
  8
M0
  6
CONTINUOUS
370
13
100
AcDbLine
 10
79.173395
 20
181.001545
 11
81.426801
 21
183.254951
  0
LINE
  5
73
100
AcDbEntity
  8
M0
  6
CONTINUOUS
370
13
100
AcDbLine
 10
76.770953
 20
181.001545
 11
79.024359
 21
183.254951
  0
LINE
  5
74
100
AcDbEntity
  8
M0
  6
CONTINUOUS
370
13
100
AcDbLine
 10
83.546597
 20
176.826274
 11
103.527898
 21
176.826274
  0
LINE
  5
75
100
AcDbEntity
  8
M0
  6
CONTINUOUS
370
13
100
AcDbLine
 10
91.917922
 20
177.952976
 11
89.664516
 21
175.699571
  0
LINE
  5
76
100
AcDbEntity
  8
M0
  6
CONTINUOUS
370
13
100
AcDbLine
 10
89.925832
 20
188.849725
 11
87.672427
 21
186.596319
  0
LINE
  5
77
100
AcDbEntity
  8
M0
  6
CONTINUOUS
370
13
100
AcDbLine
 10
93.529495
 20
188.849725
 11
91.27609
 21
186.596319
  0
LINE
  5
78
100
AcDbEntity
  8
M0
  6
CONTINUOUS
370
13
100
AcDbLine
 10
91.127053
 20
188.849725
 11
88.873648
 21
186.596319
  0
LINE
  5
79
100
AcDbEntity
  8
M0
  6
CONTINUOUS
370
13
100
AcDbLine
 10
92.328274
 20
188.849725
 11
90.074869
 21
186.596319
  0
LINE
  5
7A
100
AcDbEntity
  8
M0
  6
CONTINUOUS
370
13
100
AcDbLine
 10
96.08671
 20
187.625422
 11
83.546597
 21
187.625422
  0
LINE
  5
7B
100
AcDbEntity
  8
M0
  6
CONTINUOUS
370
13
100
AcDbLine
 10
96.743679
 20
188.282392
 11
96.743679
 21
190.340471
  0
LINE
  5
7C
100
AcDbEntity
  8
M0
  6
CONTINUOUS
370
13
100
AcDbLine
 10
96.743679
 20
186.968452
 11
96.743679
 21
184.898727
  0
LINE
  5
7D
100
AcDbEntity
  8
M0
  6
CONTINUOUS
370
13
100
AcDbLine
 10
103.527898
 20
186.493652
 11
97.400649
 21
186.493652
  0
LINE
  5
7E
100
AcDbEntity
  8
M0
  6
CONTINUOUS
370
13
100
AcDbLine
 10
103.527898
 20
188.745546
 11
97.400649
 21
188.745546
  0
LINE
  5
7F
100
AcDbEntity
  8
M0
  6
CONTINUOUS
370
13
100
AcDbLine
 10
103.527898
 20
190.997441
 11
97.400649
 21
190.997441
  0
LINE
  5
80
100
AcDbEntity
  8
M0
  6
CONTINUOUS
370
13
100
AcDbLine
 10
103.527898
 20
184.241757
 11
97.400649
 21
184.241757
  0
CIRCLE
  5
81
100
AcDbEntity
  8
M0
  6
CONTINUOUS
370
13
100
AcDbCircle
 10
72.294407
 20
182.225848
 40
2.627878
  0
ARC
  5
82
100
AcDbEntity
  8
M0
  6
CONTINUOUS
370
13
100
AcDbCircle
 10
97.400649
 20
184.898727
 40
0.65697
100
AcDbArc
 50
180.0
 51
270.0
  0
ARC
  5
83
100
AcDbEntity
  8
M0
  6
CONTINUOUS
370
13
100
AcDbCircle
 10
97.400649
 20
187.150621
 40
0.65697
100
AcDbArc
 50
180.0
 51
270.0
  0
ARC
  5
84
100
AcDbEntity
  8
M0
  6
CONTINUOUS
370
13
100
AcDbCircle
 10
97.400649
 20
190.340471
 40
0.65697
100
AcDbArc
 50
90.0
 51
180.0
  0
ARC
  5
85
100
AcDbEntity
  8
M0
  6
CONTINUOUS
370
13
100
AcDbCircle
 10
97.400649
 20
188.088577
 40
0.65697
100
AcDbArc
 50
90.0
 51
180.0
  0
ARC
  5
86
100
AcDbEntity
  8
M0
  6
CONTINUOUS
370
13
100
AcDbCircle
 10
96.08671
 20
188.282392
 40
0.65697
100
AcDbArc
 50
270.0
 51
360.0
  0
ARC
  5
87
100
AcDbEntity
  8
M0
  6
CONTINUOUS
370
13
100
AcDbCircle
 10
96.08671
 20
186.968452
 40
0.65697
100
AcDbArc
 50
0.0
 51
90.0
  0
LINE
  5
88
100
AcDbEntity
  8
M0
  6
CONTINUOUS
370
13
 62
     7
100
AcDbLine
 10
102.302924
 20
192.194636
 11
106.066812
 21
192.194636
  0
LINE
  5
89
100
AcDbEntity
  8
M0
  6
CONTINUOUS
370
13
 62
     7
100
AcDbLine
 10
102.302924
 20
192.194636
 11
102.302924
 21
180.814413
  0
LINE
  5
8A
100
AcDbEntity
  8
M0
  6
CONTINUOUS
370
13
 62
     7
100
AcDbLine
 10
102.302924
 20
180.814413
 11
106.066812
 21
180.814413
  0
LINE
  5
8B
100
AcDbEntity
  8
M0
  6
CONTINUOUS
370
13
 62
     7
100
AcDbLine
 10
106.066812
 20
192.194636
 11
106.066812
 21
180.814413
  0
CIRCLE
  5
8C
100
AcDbEntity
  8
M0
  6
CONTINUOUS
370
13
100
AcDbCircle
 10
104.184868
 20
190.997441
 40
0.65697
  0
CIRCLE
  5
8D
100
AcDbEntity
  8
M0
  6
CONTINUOUS
370
13
100
AcDbCircle
 10
104.184868
 20
186.493652
 40
0.65697
  0
CIRCLE
  5
8E
100
AcDbEntity
  8
M0
  6
CONTINUOUS
370
13
100
AcDbCircle
 10
104.184868
 20
181.989863
 40
0.65697
  0
CIRCLE
  5
8F
100
AcDbEntity
  8
M0
  6
CONTINUOUS
370
13
100
AcDbCircle
 10
104.184868
 20
188.745546
 40
0.65697
  0
CIRCLE
  5
90
100
AcDbEntity
  8
M0
  6
CONTINUOUS
370
13
100
AcDbCircle
 10
104.184868
 20
184.241757
 40
0.65697
  0
TEXT
  5
91
100
AcDbEntity
  8
M0
100
AcDbText
 10
106.066808
 20
191.52508
 40
2.688492
  1
ＣＮ３０３
 50
270.000001
 41
0.643939
  7
STANDARD
100
AcDbText
  0
CIRCLE
  5
92
100
AcDbEntity
  8
M0
  6
CONTINUOUS
370
13
100
AcDbCircle
 10
180.101108
 20
158.170746
 40
0.65697
  0
CIRCLE
  5
93
100
AcDbEntity
  8
M0
  6
CONTINUOUS
370
13
100
AcDbCircle
 10
182.323435
 20
158.170746
 40
0.65697
  0
CIRCLE
  5
94
100
AcDbEntity
  8
M0
  6
CONTINUOUS
370
13
100
AcDbCircle
 10
180.101108
 20
161.864194
 40
0.65697
  0
CIRCLE
  5
95
100
AcDbEntity
  8
M0
  6
CONTINUOUS
370
13
100
AcDbCircle
 10
182.323435
 20
161.864194
 40
0.65697
  0
CIRCLE
  5
96
100
AcDbEntity
  8
M0
  6
CONTINUOUS
370
13
100
AcDbCircle
 10
180.101108
 20
179.994148
 40
0.65697
  0
CIRCLE
  5
97
100
AcDbEntity
  8
M0
  6
CONTINUOUS
370
13
100
AcDbCircle
 10
182.323435
 20
179.994148
 40
0.65697
  0
CIRCLE
  5
98
100
AcDbEntity
  8
M0
  6
CONTINUOUS
370
13
100
AcDbCircle
 10
180.101108
 20
176.3007
 40
0.65697
  0
CIRCLE
  5
99
100
AcDbEntity
  8
M0
  6
CONTINUOUS
370
13
100
AcDbCircle
 10
182.323435
 20
176.3007
 40
0.65697
  0
CIRCLE
  5
9A
100
AcDbEntity
  8
M0
  6
CONTINUOUS
370
13
100
AcDbCircle
 10
180.101108
 20
187.381044
 40
0.65697
  0
CIRCLE
  5
9B
100
AcDbEntity
  8
M0
  6
CONTINUOUS
370
13
100
AcDbCircle
 10
182.323435
 20
187.381044
 40
0.65697
  0
TEXT
  5
9C
100
AcDbEntity
  8
M0
100
AcDbText
 10
175.847258
 20
189.371372
 40
2.688492
  1
ＣＮ１２
 50
-90.000003
 41
0.643939
  7
STANDARD
100
AcDbText
  0
TEXT
  5
9D
100
AcDbEntity
  8
M0
100
AcDbText
 10
175.847258
 20
158.31435
 40
2.688492
  1
ＣＮ１１
 50
-90.000003
 41
0.643939
  7
STANDARD
100
AcDbText
  0
TEXT
  5
9E
100
AcDbEntity
  8
M0
100
AcDbText
 10
195.117387
 20
181.67984
 40
3.666125
  1
給湯温度センサ３（合流）
 41
0.694444
  7
STANDARD
100
AcDbText
  0
TEXT
  5
9F
100
AcDbEntity
  8
M0
100
AcDbText
 10
195.117387
 20
174.292944
 40
3.666125
  1
給湯温度センサ４（高温）
 41
0.694444
  7
STANDARD
100
AcDbText
  0
TEXT
  5
A0
100
AcDbEntity
  8
M0
100
AcDbText
 10
195.117387
 20
167.243333
 40
3.666125
  1
給湯温度センサ２（２系）
 41
0.694444
  7
STANDARD
100
AcDbText
  0
TEXT
  5
A1
100
AcDbEntity
  8
M0
100
AcDbText
 10
195.117389
 20
152.469542
 40
3.666125
  1
水温度
 41
0.694444
  7
STANDARD
100
AcDbText
  0
TEXT
  5
A2
100
AcDbEntity
  8
M0
100
AcDbText
 10
195.117389
 20
156.162989
 40
3.666125
  1
タンクセンサ１（最頂部）
 41
0.694444
  7
STANDARD
100
AcDbText
  0
TEXT
  5
A3
100
AcDbEntity
  8
M0
100
AcDbText
 10
195.117389
 20
163.549886
 40
3.666125
  1
給湯温度センサ１（１系）
 41
0.694444
  7
STANDARD
100
AcDbText
  0
LINE
  5
A4
100
AcDbEntity
  8
M0
  6
CONTINUOUS
370
13
 62
     7
100
AcDbLine
 10
178.535749
 20
137.226226
 11
183.888794
 21
137.226226
  0
LINE
  5
A5
100
AcDbEntity
  8
M0
  6
CONTINUOUS
370
13
 62
     7
100
AcDbLine
 10
178.535749
 20
171.728371
 11
178.535749
 21
137.226226
  0
LINE
  5
A6
100
AcDbEntity
  8
M0
  6
CONTINUOUS
370
13
 62
     7
100
AcDbLine
 10
183.888794
 20
137.226226
 11
183.888794
 21
171.728371
  0
LINE
  5
A7
100
AcDbEntity
  8
M0
  6
CONTINUOUS
370
13
 62
     7
100
AcDbLine
 10
183.888794
 20
171.728371
 11
178.535749
 21
171.728371
  0
LINE
  5
A8
100
AcDbEntity
  8
M0
  6
CONTINUOUS
370
13
100
AcDbLine
 10
189.523052
 20
139.042066
 11
188.756602
 21
140.369597
  0
LINE
  5
A9
100
AcDbEntity
  8
M0
  6
CONTINUOUS
370
13
100
AcDbLine
 10
187.990152
 20
139.042066
 11
187.223702
 21
140.369597
  0
LINE
  5
AA
100
AcDbEntity
  8
M0
  6
CONTINUOUS
370
13
100
AcDbLine
 10
193.738614
 20
138.432036
 11
193.738614
 21
139.705831
  0
LINE
  5
AB
100
AcDbEntity
  8
M0
  6
CONTINUOUS
370
13
100
AcDbLine
 10
191.055952
 20
139.042066
 11
190.289502
 21
140.369597
  0
LINE
  5
AC
100
AcDbEntity
  8
M0
  6
CONTINUOUS
370
13
100
AcDbLine
 10
189.523052
 20
139.042066
 11
190.289502
 21
140.369597
  0
LINE
  5
AD
100
AcDbEntity
  8
M0
  6
CONTINUOUS
370
13
100
AcDbLine
 10
186.840477
 20
139.705831
 11
187.223702
 21
140.369597
  0
LINE
  5
AE
100
AcDbEntity
  8
M0
  6
CONTINUOUS
370
13
100
AcDbLine
 10
181.372582
 20
138.432036
 11
193.738614
 21
138.432036
  0
LINE
  5
AF
100
AcDbEntity
  8
M0
  6
CONTINUOUS
370
13
100
AcDbLine
 10
180.565657
 20
139.238961
 11
181.372582
 21
138.432036
  0
LINE
  5
B0
100
AcDbEntity
  8
M0
  6
CONTINUOUS
370
13
100
AcDbLine
 10
187.990152
 20
139.042066
 11
188.756602
 21
140.369597
  0
LINE
  5
B1
100
AcDbEntity
  8
M0
  6
CONTINUOUS
370
13
100
AcDbLine
 10
191.439177
 20
139.705831
 11
193.738614
 21
139.705831
  0
LINE
  5
B2
100
AcDbEntity
  8
M0
  6
CONTINUOUS
370
13
100
AcDbLine
 10
182.980409
 20
139.703507
 11
186.840477
 21
139.705831
  0
LINE
  5
B3
100
AcDbEntity
  8
M0
  6
DIVIDE
370
13
100
AcDbLine
 10
191.439264
 20
140.625589
 11
186.840477
 21
140.625589
  0
LINE
  5
B4
100
AcDbEntity
  8
M0
  6
CONTINUOUS
370
13
100
AcDbLine
 10
191.439177
 20
139.705831
 11
191.055952
 21
139.042066
  0
LINE
  5
B5
100
AcDbEntity
  8
M0
  6
DIVIDE
370
13
100
AcDbLine
 10
186.840477
 20
138.786074
 11
191.439264
 21
138.786074
  0
CIRCLE
  5
B6
100
AcDbEntity
  8
M0
  6
CONTINUOUS
370
13
100
AcDbCircle
 10
180.101108
 20
139.703507
 40
0.65697
  0
CIRCLE
  5
B7
100
AcDbEntity
  8
M0
  6
CONTINUOUS
370
13
100
AcDbCircle
 10
182.323435
 20
139.703507
 40
0.65697
  0
ARC
  5
B8
100
AcDbEntity
  8
M0
  6
DIVIDE
370
13
100
AcDbCircle
 10
191.439264
 20
139.705831
 40
0.919757
100
AcDbArc
 50
270.0
 51
450.0
  0
ARC
  5
B9
100
AcDbEntity
  8
M0
  6
DIVIDE
370
13
100
AcDbCircle
 10
186.840477
 20
139.705831
 40
0.919757
100
AcDbArc
 50
90.0
 51
270.0
  0
LINE
  5
BA
100
AcDbEntity
  8
M0
  6
CONTINUOUS
370
13
100
AcDbLine
 10
181.372582
 20
142.125484
 11
193.738614
 21
142.125484
  0
LINE
  5
BB
100
AcDbEntity
  8
M0
  6
CONTINUOUS
370
13
100
AcDbLine
 10
180.565657
 20
142.932409
 11
181.372582
 21
142.125484
  0
LINE
  5
BC
100
AcDbEntity
  8
M0
  6
CONTINUOUS
370
13
100
AcDbLine
 10
186.840477
 20
143.399279
 11
187.223702
 21
144.063045
  0
LINE
  5
BD
100
AcDbEntity
  8
M0
  6
DIVIDE
370
13
100
AcDbLine
 10
186.840477
 20
142.479522
 11
191.439264
 21
142.479522
  0
LINE
  5
BE
100
AcDbEntity
  8
M0
  6
CONTINUOUS
370
13
100
AcDbLine
 10
191.439177
 20
143.399279
 11
193.738614
 21
143.399279
  0
LINE
  5
BF
100
AcDbEntity
  8
M0
  6
CONTINUOUS
370
13
100
AcDbLine
 10
193.738614
 20
142.125484
 11
193.738614
 21
143.399279
  0
LINE
  5
C0
100
AcDbEntity
  8
M0
  6
DIVIDE
370
13
100
AcDbLine
 10
191.439264
 20
144.319037
 11
186.840477
 21
144.319037
  0
LINE
  5
C1
100
AcDbEntity
  8
M0
  6
CONTINUOUS
370
13
100
AcDbLine
 10
189.523052
 20
142.735514
 11
188.756602
 21
144.063045
  0
LINE
  5
C2
100
AcDbEntity
  8
M0
  6
CONTINUOUS
370
13
100
AcDbLine
 10
187.990152
 20
142.735514
 11
187.223702
 21
144.063045
  0
LINE
  5
C3
100
AcDbEntity
  8
M0
  6
CONTINUOUS
370
13
100
AcDbLine
 10
182.980409
 20
143.396955
 11
186.840477
 21
143.399279
  0
LINE
  5
C4
100
AcDbEntity
  8
M0
  6
CONTINUOUS
370
13
100
AcDbLine
 10
189.523052
 20
142.735514
 11
190.289502
 21
144.063045
  0
LINE
  5
C5
100
AcDbEntity
  8
M0
  6
CONTINUOUS
370
13
100
AcDbLine
 10
191.439177
 20
143.399279
 11
191.055952
 21
142.735514
  0
LINE
  5
C6
100
AcDbEntity
  8
M0
  6
CONTINUOUS
370
13
100
AcDbLine
 10
187.990152
 20
142.735514
 11
188.756602
 21
144.063045
  0
LINE
  5
C7
100
AcDbEntity
  8
M0
  6
CONTINUOUS
370
13
100
AcDbLine
 10
191.055952
 20
142.735514
 11
190.289502
 21
144.063045
  0
CIRCLE
  5
C8
100
AcDbEntity
  8
M0
  6
CONTINUOUS
370
13
100
AcDbCircle
 10
180.101108
 20
143.396955
 40
0.65697
  0
CIRCLE
  5
C9
100
AcDbEntity
  8
M0
  6
CONTINUOUS
370
13
100
AcDbCircle
 10
182.323435
 20
143.396955
 40
0.65697
  0
ARC
  5
CA
100
AcDbEntity
  8
M0
  6
DIVIDE
370
13
100
AcDbCircle
 10
186.840477
 20
143.399279
 40
0.919757
100
AcDbArc
 50
90.0
 51
270.0
  0
ARC
  5
CB
100
AcDbEntity
  8
M0
  6
DIVIDE
370
13
100
AcDbCircle
 10
191.439264
 20
143.399279
 40
0.919757
100
AcDbArc
 50
270.0
 51
450.0
  0
LINE
  5
CC
100
AcDbEntity
  8
M0
  6
CONTINUOUS
370
13
100
AcDbLine
 10
189.523052
 20
146.428962
 11
188.756602
 21
147.756493
  0
LINE
  5
CD
100
AcDbEntity
  8
M0
  6
DIVIDE
370
13
100
AcDbLine
 10
191.439264
 20
148.012485
 11
186.840477
 21
148.012485
  0
LINE
  5
CE
100
AcDbEntity
  8
M0
  6
CONTINUOUS
370
13
100
AcDbLine
 10
193.738614
 20
145.818932
 11
193.738614
 21
147.092727
  0
LINE
  5
CF
100
AcDbEntity
  8
M0
  6
CONTINUOUS
370
13
100
AcDbLine
 10
182.980409
 20
147.090403
 11
186.840477
 21
147.092727
  0
LINE
  5
D0
100
AcDbEntity
  8
M0
  6
CONTINUOUS
370
13
100
AcDbLine
 10
187.990152
 20
146.428962
 11
187.223702
 21
147.756493
  0
LINE
  5
D1
100
AcDbEntity
  8
M0
  6
CONTINUOUS
370
13
100
AcDbLine
 10
191.439177
 20
147.092727
 11
191.055952
 21
146.428962
  0
LINE
  5
D2
100
AcDbEntity
  8
M0
  6
CONTINUOUS
370
13
100
AcDbLine
 10
181.372582
 20
145.818932
 11
193.738614
 21
145.818932
  0
LINE
  5
D3
100
AcDbEntity
  8
M0
  6
CONTINUOUS
370
13
100
AcDbLine
 10
186.840477
 20
147.092727
 11
187.223702
 21
147.756493
  0
LINE
  5
D4
100
AcDbEntity
  8
M0
  6
CONTINUOUS
370
13
100
AcDbLine
 10
191.055952
 20
146.428962
 11
190.289502
 21
147.756493
  0
LINE
  5
D5
100
AcDbEntity
  8
M0
  6
CONTINUOUS
370
13
100
AcDbLine
 10
189.523052
 20
146.428962
 11
190.289502
 21
147.756493
  0
LINE
  5
D6
100
AcDbEntity
  8
M0
  6
CONTINUOUS
370
13
100
AcDbLine
 10
191.439177
 20
147.092727
 11
193.738614
 21
147.092727
  0
LINE
  5
D7
100
AcDbEntity
  8
M0
  6
DIVIDE
370
13
100
AcDbLine
 10
186.840477
 20
146.17297
 11
191.439264
 21
146.17297
  0
LINE
  5
D8
100
AcDbEntity
  8
M0
  6
CONTINUOUS
370
13
100
AcDbLine
 10
180.565657
 20
146.625857
 11
181.372582
 21
145.818932
  0
LINE
  5
D9
100
AcDbEntity
  8
M0
  6
CONTINUOUS
370
13
100
AcDbLine
 10
187.990152
 20
146.428962
 11
188.756602
 21
147.756493
  0
CIRCLE
  5
DA
100
AcDbEntity
  8
M0
  6
CONTINUOUS
370
13
100
AcDbCircle
 10
182.323435
 20
147.090403
 40
0.65697
  0
CIRCLE
  5
DB
100
AcDbEntity
  8
M0
  6
CONTINUOUS
370
13
100
AcDbCircle
 10
180.101108
 20
147.090403
 40
0.65697
  0
ARC
  5
DC
100
AcDbEntity
  8
M0
  6
DIVIDE
370
13
100
AcDbCircle
 10
191.439264
 20
147.092727
 40
0.919757
100
AcDbArc
 50
270.0
 51
450.0
  0
ARC
  5
DD
100
AcDbEntity
  8
M0
  6
DIVIDE
370
13
100
AcDbCircle
 10
186.840477
 20
147.092727
 40
0.919757
100
AcDbArc
 50
90.0
 51
270.0
  0
LINE
  5
DE
100
AcDbEntity
  8
M0
  6
CONTINUOUS
370
13
 62
     7
100
AcDbLine
 10
106.066812
 20
178.726066
 11
102.302924
 21
178.726066
  0
LINE
  5
DF
100
AcDbEntity
  8
M0
  6
CONTINUOUS
370
13
 62
     7
100
AcDbLine
 10
102.302924
 20
168.794527
 11
102.302924
 21
178.726066
  0
LINE
  5
E0
100
AcDbEntity
  8
M0
  6
CONTINUOUS
370
13
 62
     7
100
AcDbLine
 10
106.066812
 20
168.794527
 11
106.066812
 21
178.726066
  0
LINE
  5
E1
100
AcDbEntity
  8
M0
  6
CONTINUOUS
370
13
100
AcDbLine
 10
83.546597
 20
170.716066
 11
103.527898
 21
170.716066
  0
LINE
  5
E2
100
AcDbEntity
  8
M0
  6
CONTINUOUS
370
13
 62
     7
100
AcDbLine
 10
106.066812
 20
168.794527
 11
102.302924
 21
168.794527
  0
CIRCLE
  5
E3
100
AcDbEntity
  8
M0
  6
CONTINUOUS
370
13
100
AcDbCircle
 10
104.184868
 20
173.77117
 40
0.65697
  0
CIRCLE
  5
E4
100
AcDbEntity
  8
M0
  6
CONTINUOUS
370
13
100
AcDbCircle
 10
104.184868
 20
176.826274
 40
0.65697
  0
CIRCLE
  5
E5
100
AcDbEntity
  8
M0
  6
CONTINUOUS
370
13
100
AcDbCircle
 10
104.184868
 20
170.716066
 40
0.65697
  0
TEXT
  5
E6
100
AcDbEntity
  8
M0
100
AcDbText
 10
106.066815
 20
178.780848
 40
2.688492
  1
ＣＮ３０１
 50
270.000001
 41
0.643939
  7
STANDARD
100
AcDbText
  0
TEXT
  5
E7
100
AcDbEntity
  8
M0
100
AcDbText
 10
107.804478
 20
129.329825
 40
2.688492
  1
ＣＮ１
 50
270.000001
 41
0.643939
  7
STANDARD
100
AcDbText
  0
TEXT
  5
E8
100
AcDbEntity
  8
M0
100
AcDbText
 10
105.929875
 20
230.381251
 40
2.688492
  1
ＣＮ１８
 50
270.000001
 41
0.643939
  7
STANDARD
100
AcDbText
  0
LINE
  5
E9
100
AcDbEntity
  8
M0
  6
CONTINUOUS
370
13
 62
     7
100
AcDbLine
 10
100.021779
 20
110.454162
 11
184.908582
 21
110.454162
  0
LINE
  5
EA
100
AcDbEntity
  8
M0
  6
CONTINUOUS
370
13
 62
     7
100
AcDbLine
 10
184.908582
 20
231.293506
 11
100.021779
 21
231.293506
  0
LINE
  5
EB
100
AcDbEntity
  8
M0
  6
CONTINUOUS
370
13
 62
     7
100
AcDbLine
 10
184.908582
 20
110.454162
 11
184.908582
 21
231.293506
  0
LINE
  5
EC
100
AcDbEntity
  8
M0
  6
CONTINUOUS
370
13
 62
     7
100
AcDbLine
 10
100.021779
 20
231.293506
 11
100.021779
 21
110.454162
  0
LINE
  5
ED
100
AcDbEntity
  8
M0
  6
CONTINUOUS
370
13
 62
     7
100
AcDbLine
 10
298.319453
 20
221.8375
 11
298.319453
 21
237.044702
  0
LINE
  5
EE
100
AcDbEntity
  8
M0
  6
CONTINUOUS
370
13
 62
     7
100
AcDbLine
 10
285.442033
 20
228.112042
 11
285.442033
 21
225.954541
  0
LINE
  5
EF
100
AcDbEntity
  8
M0
  6
CONTINUOUS
370
13
 62
     7
100
AcDbLine
 10
294.997913
 20
225.488656
 11
294.997913
 21
231.463275
  0
LINE
  5
F0
100
AcDbEntity
  8
M0
  6
CONTINUOUS
370
13
 62
     7
100
AcDbLine
 10
291.678681
 20
231.463275
 11
293.67022
 21
231.463275
  0
LINE
  5
F1
100
AcDbEntity
  8
M0
  6
CONTINUOUS
370
13
 62
     7
100
AcDbLine
 10
289.922997
 20
228.112042
 11
289.922997
 21
225.954541
  0
LINE
  5
F2
100
AcDbEntity
  8
M0
  6
CONTINUOUS
370
13
 62
     7
100
AcDbLine
 10
288.761265
 20
225.954541
 11
289.922997
 21
225.954541
  0
LINE
  5
F3
100
AcDbEntity
  8
M0
  6
CONTINUOUS
370
13
 62
     7
100
AcDbLine
 10
298.319453
 20
237.044702
 11
283.712522
 21
237.044702
  0
LINE
  5
F4
100
AcDbEntity
  8
M0
  6
CONTINUOUS
370
13
 62
     7
100
AcDbLine
 10
288.761265
 20
228.112042
 11
288.761265
 21
225.954541
  0
LINE
  5
F5
100
AcDbEntity
  8
M0
  6
CONTINUOUS
370
13
 62
     7
100
AcDbLine
 10
292.080498
 20
225.954541
 11
293.24223
 21
225.954541
  0
LINE
  5
F6
100
AcDbEntity
  8
M0
  6
CONTINUOUS
370
13
 62
     7
100
AcDbLine
 10
292.080498
 20
228.112042
 11
293.24223
 21
228.112042
  0
LINE
  5
F7
100
AcDbEntity
  8
M0
  6
CONTINUOUS
370
13
 62
     7
100
AcDbLine
 10
292.080498
 20
228.112042
 11
292.080498
 21
225.954541
  0
LINE
  5
F8
100
AcDbEntity
  8
M0
  6
CONTINUOUS
370
13
 62
     7
100
AcDbLine
 10
293.24223
 20
228.112042
 11
293.24223
 21
225.954541
  0
LINE
  5
F9
100
AcDbEntity
  8
M0
  6
CONTINUOUS
370
13
 62
     7
100
AcDbLine
 10
286.603764
 20
228.112042
 11
286.603764
 21
225.954541
  0
LINE
  5
FA
100
AcDbEntity
  8
M0
  6
CONTINUOUS
370
13
 62
     7
100
AcDbLine
 10
288.761265
 20
228.112042
 11
289.922997
 21
228.112042
  0
LINE
  5
FB
100
AcDbEntity
  8
M0
  6
CONTINUOUS
370
13
 62
     7
100
AcDbLine
 10
290.350988
 20
225.488656
 11
290.350988
 21
231.463275
  0
LINE
  5
FC
100
AcDbEntity
  8
M0
  6
CONTINUOUS
370
13
 62
     7
100
AcDbLine
 10
283.712522
 20
221.8375
 11
298.319453
 21
221.8375
  0
LINE
  5
FD
100
AcDbEntity
  8
M0
  6
CONTINUOUS
370
13
 62
     7
100
AcDbLine
 10
285.040215
 20
225.488656
 11
287.031755
 21
225.488656
  0
LINE
  5
FE
100
AcDbEntity
  8
M0
  6
CONTINUOUS
370
13
 62
     7
100
AcDbLine
 10
293.67022
 20
225.488656
 11
293.67022
 21
231.463275
  0
LINE
  5
FF
100
AcDbEntity
  8
M0
  6
CONTINUOUS
370
13
 62
     7
100
AcDbLine
 10
288.359448
 20
225.488656
 11
288.359448
 21
231.463275
  0
LINE
  5
100
100
AcDbEntity
  8
M0
  6
CONTINUOUS
370
13
 62
     7
100
AcDbLine
 10
294.997913
 20
228.475966
 11
296.989453
 21
228.475966
  0
LINE
  5
101
100
AcDbEntity
  8
M0
  6
CONTINUOUS
370
13
 62
     7
100
AcDbLine
 10
294.997913
 20
231.463275
 11
296.989453
 21
231.463275
  0
LINE
  5
102
100
AcDbEntity
  8
M0
  6
CONTINUOUS
370
13
 62
     7
100
AcDbLine
 10
291.678681
 20
225.488656
 11
291.678681
 21
231.463275
  0
LINE
  5
103
100
AcDbEntity
  8
M0
  6
CONTINUOUS
370
13
 62
     7
100
AcDbLine
 10
285.040215
 20
231.463275
 11
287.031755
 21
231.463275
  0
LINE
  5
104
100
AcDbEntity
  8
M0
  6
CONTINUOUS
370
13
 62
     7
100
AcDbLine
 10
283.712522
 20
237.044702
 11
283.712522
 21
221.8375
  0
LINE
  5
105
100
AcDbEntity
  8
M0
  6
CONTINUOUS
370
13
 62
     7
100
AcDbLine
 10
288.359448
 20
231.463275
 11
290.350988
 21
231.463275
  0
LINE
  5
106
100
AcDbEntity
  8
M0
  6
CONTINUOUS
370
13
 62
     7
100
AcDbLine
 10
285.442033
 20
228.112042
 11
286.603764
 21
228.112042
  0
LINE
  5
107
100
AcDbEntity
  8
M0
  6
CONTINUOUS
370
13
 62
     7
100
AcDbLine
 10
287.031755
 20
225.488656
 11
287.031755
 21
231.463275
  0
LINE
  5
108
100
AcDbEntity
  8
M0
  6
CONTINUOUS
370
13
 62
     7
100
AcDbLine
 10
296.989453
 20
225.488656
 11
296.989453
 21
231.463275
  0
LINE
  5
109
100
AcDbEntity
  8
M0
  6
CONTINUOUS
370
13
 62
     7
100
AcDbLine
 10
285.442033
 20
225.954541
 11
286.603764
 21
225.954541
  0
LINE
  5
10A
100
AcDbEntity
  8
M0
  6
CONTINUOUS
370
13
 62
     7
100
AcDbLine
 10
285.040215
 20
225.488656
 11
285.040215
 21
231.463275
  0
LINE
  5
10B
100
AcDbEntity
  8
M0
  6
CONTINUOUS
370
13
 62
     7
100
AcDbLine
 10
291.678681
 20
225.488656
 11
293.67022
 21
225.488656
  0
LINE
  5
10C
100
AcDbEntity
  8
M0
  6
CONTINUOUS
370
13
 62
     7
100
AcDbLine
 10
294.997913
 20
225.488656
 11
296.989453
 21
225.488656
  0
LINE
  5
10D
100
AcDbEntity
  8
M0
  6
CONTINUOUS
370
13
 62
     7
100
AcDbLine
 10
288.359448
 20
225.488656
 11
290.350988
 21
225.488656
  0
LINE
  5
10E
100
AcDbEntity
  8
M0
  6
CONTINUOUS
370
13
 62
     7
100
AcDbLine
 10
291.678681
 20
228.475966
 11
293.67022
 21
228.475966
  0
LINE
  5
10F
100
AcDbEntity
  8
M0
  6
CONTINUOUS
370
13
 62
     7
100
AcDbLine
 10
288.346948
 20
228.470122
 11
290.338487
 21
228.470122
  0
LINE
  5
110
100
AcDbEntity
  8
M0
  6
CONTINUOUS
370
13
 62
     7
100
AcDbLine
 10
285.040215
 20
228.475966
 11
287.031755
 21
228.475966
  0
LINE
  5
111
100
AcDbEntity
  8
M0
  6
CONTINUOUS
370
13
 62
     7
100
AcDbLine
 10
295.399731
 20
228.112042
 11
295.399731
 21
225.954541
  0
LINE
  5
112
100
AcDbEntity
  8
M0
  6
CONTINUOUS
370
13
 62
     7
100
AcDbLine
 10
296.561462
 20
228.112042
 11
296.561462
 21
225.954541
  0
LINE
  5
113
100
AcDbEntity
  8
M0
  6
CONTINUOUS
370
13
 62
     7
100
AcDbLine
 10
295.399731
 20
225.954541
 11
296.561462
 21
225.954541
  0
LINE
  5
114
100
AcDbEntity
  8
M0
  6
CONTINUOUS
370
13
 62
     7
100
AcDbLine
 10
295.399731
 20
228.112042
 11
296.561462
 21
228.112042
  0
TEXT
  5
115
100
AcDbEntity
  8
M0
 62
     7
100
AcDbText
 10
295.121818
 20
231.457434
 40
2.619344
  1
８
 41
0.645833
  7
STANDARD
100
AcDbText
  0
TEXT
  5
116
100
AcDbEntity
  8
M0
 62
     7
100
AcDbText
 10
285.229034
 20
231.434821
 40
2.619344
  1
５
 41
0.645833
  7
STANDARD
100
AcDbText
  0
TEXT
  5
117
100
AcDbEntity
  8
M0
 62
     7
100
AcDbText
 10
284.312454
 20
234.127417
 40
2.619344
  1
ＯＮ
 41
0.645833
  7
STANDARD
100
AcDbText
  0
TEXT
  5
118
100
AcDbEntity
  8
M0
 62
     7
100
AcDbText
 10
291.802589
 20
231.457434
 40
2.619344
  1
７
 41
0.645833
  7
STANDARD
100
AcDbText
  0
TEXT
  5
119
100
AcDbEntity
  8
M0
 62
     7
100
AcDbText
 10
288.483375
 20
231.457434
 40
2.619344
  1
６
 41
0.645833
  7
STANDARD
100
AcDbText
  0
TEXT
  5
11A
100
AcDbEntity
  8
M0
 62
     7
100
AcDbText
 10
284.090003
 20
239.026694
 40
2.910382
  1
＜ＳＷ２＞
 41
0.645833
  7
STANDARD
100
AcDbText
  0
LINE
  5
11B
100
AcDbEntity
  8
M0
  6
CONTINUOUS
370
13
100
AcDbLine
 10
186.840477
 20
169.253415
 11
187.223702
 21
169.91718
  0
LINE
  5
11C
100
AcDbEntity
  8
M0
  6
CONTINUOUS
370
13
100
AcDbLine
 10
181.372582
 20
167.97962
 11
193.738614
 21
167.97962
  0
LINE
  5
11D
100
AcDbEntity
  8
M0
  6
DIVIDE
370
13
100
AcDbLine
 10
186.840477
 20
168.333658
 11
191.439264
 21
168.333658
  0
LINE
  5
11E
100
AcDbEntity
  8
M0
  6
CONTINUOUS
370
13
100
AcDbLine
 10
193.738614
 20
167.97962
 11
193.738614
 21
169.253415
  0
LINE
  5
11F
100
AcDbEntity
  8
M0
  6
CONTINUOUS
370
13
100
AcDbLine
 10
182.980409
 20
169.25109
 11
186.840477
 21
169.253415
  0
LINE
  5
120
100
AcDbEntity
  8
M0
  6
CONTINUOUS
370
13
100
AcDbLine
 10
180.565657
 20
168.786545
 11
181.372582
 21
167.97962
  0
LINE
  5
121
100
AcDbEntity
  8
M0
  6
CONTINUOUS
370
13
100
AcDbLine
 10
187.990152
 20
168.58965
 11
188.756602
 21
169.91718
  0
LINE
  5
122
100
AcDbEntity
  8
M0
  6
CONTINUOUS
370
13
100
AcDbLine
 10
189.523052
 20
168.58965
 11
188.756602
 21
169.91718
  0
LINE
  5
123
100
AcDbEntity
  8
M0
  6
CONTINUOUS
370
13
100
AcDbLine
 10
191.439177
 20
169.253415
 11
193.738614
 21
169.253415
  0
LINE
  5
124
100
AcDbEntity
  8
M0
  6
CONTINUOUS
370
13
100
AcDbLine
 10
191.439177
 20
169.253415
 11
191.055952
 21
168.58965
  0
LINE
  5
125
100
AcDbEntity
  8
M0
  6
CONTINUOUS
370
13
100
AcDbLine
 10
191.055952
 20
168.58965
 11
190.289502
 21
169.91718
  0
LINE
  5
126
100
AcDbEntity
  8
M0
  6
CONTINUOUS
370
13
100
AcDbLine
 10
189.523052
 20
168.58965
 11
190.289502
 21
169.91718
  0
LINE
  5
127
100
AcDbEntity
  8
M0
  6
DIVIDE
370
13
100
AcDbLine
 10
191.439264
 20
170.173173
 11
186.840477
 21
170.173173
  0
LINE
  5
128
100
AcDbEntity
  8
M0
  6
CONTINUOUS
370
13
100
AcDbLine
 10
187.990152
 20
168.58965
 11
187.223702
 21
169.91718
  0
CIRCLE
  5
129
100
AcDbEntity
  8
M0
  6
CONTINUOUS
370
13
100
AcDbCircle
 10
182.323435
 20
169.25109
 40
0.65697
  0
CIRCLE
  5
12A
100
AcDbEntity
  8
M0
  6
CONTINUOUS
370
13
100
AcDbCircle
 10
180.101108
 20
169.25109
 40
0.65697
  0
ARC
  5
12B
100
AcDbEntity
  8
M0
  6
DIVIDE
370
13
100
AcDbCircle
 10
191.439264
 20
169.253415
 40
0.919757
100
AcDbArc
 50
270.0
 51
450.0
  0
ARC
  5
12C
100
AcDbEntity
  8
M0
  6
DIVIDE
370
13
100
AcDbCircle
 10
186.840477
 20
169.253415
 40
0.919757
100
AcDbArc
 50
90.0
 51
270.0
  0
LINE
  5
12D
100
AcDbEntity
  8
M0
  6
CONTINUOUS
370
13
100
AcDbLine
 10
187.990152
 20
183.026156
 11
187.223702
 21
184.353686
  0
LINE
  5
12E
100
AcDbEntity
  8
M0
  6
CONTINUOUS
370
13
100
AcDbLine
 10
191.439177
 20
183.689921
 11
191.055952
 21
183.026156
  0
LINE
  5
12F
100
AcDbEntity
  8
M0
  6
CONTINUOUS
370
13
100
AcDbLine
 10
191.055952
 20
183.026156
 11
190.289502
 21
184.353686
  0
LINE
  5
130
100
AcDbEntity
  8
M0
  6
CONTINUOUS
370
13
100
AcDbLine
 10
189.523052
 20
183.026156
 11
188.756602
 21
184.353686
  0
LINE
  5
131
100
AcDbEntity
  8
M0
  6
CONTINUOUS
370
13
100
AcDbLine
 10
189.523052
 20
183.026156
 11
190.289502
 21
184.353686
  0
LINE
  5
132
100
AcDbEntity
  8
M0
  6
CONTINUOUS
370
13
100
AcDbLine
 10
187.990152
 20
183.026156
 11
188.756602
 21
184.353686
  0
LINE
  5
133
100
AcDbEntity
  8
M0
  6
CONTINUOUS
370
13
100
AcDbLine
 10
182.980409
 20
183.687596
 11
186.840477
 21
183.689921
  0
LINE
  5
134
100
AcDbEntity
  8
M0
  6
DIVIDE
370
13
100
AcDbLine
 10
191.439264
 20
184.609678
 11
186.840477
 21
184.609678
  0
LINE
  5
135
100
AcDbEntity
  8
M0
  6
CONTINUOUS
370
13
100
AcDbLine
 10
180.565657
 20
183.223051
 11
181.372582
 21
182.416126
  0
LINE
  5
136
100
AcDbEntity
  8
M0
  6
CONTINUOUS
370
13
100
AcDbLine
 10
181.372582
 20
182.416126
 11
193.738614
 21
182.416126
  0
LINE
  5
137
100
AcDbEntity
  8
M0
  6
CONTINUOUS
370
13
100
AcDbLine
 10
191.439177
 20
183.689921
 11
193.738614
 21
183.689921
  0
LINE
  5
138
100
AcDbEntity
  8
M0
  6
CONTINUOUS
370
13
100
AcDbLine
 10
186.840477
 20
183.689921
 11
187.223702
 21
184.353686
  0
LINE
  5
139
100
AcDbEntity
  8
M0
  6
DIVIDE
370
13
100
AcDbLine
 10
186.840477
 20
182.770163
 11
191.439264
 21
182.770163
  0
LINE
  5
13A
100
AcDbEntity
  8
M0
  6
CONTINUOUS
370
13
100
AcDbLine
 10
193.738614
 20
182.416126
 11
193.738614
 21
183.689921
  0
CIRCLE
  5
13B
100
AcDbEntity
  8
M0
  6
CONTINUOUS
370
13
100
AcDbCircle
 10
182.323435
 20
183.687596
 40
0.65697
  0
CIRCLE
  5
13C
100
AcDbEntity
  8
M0
  6
CONTINUOUS
370
13
100
AcDbCircle
 10
180.101108
 20
183.687596
 40
0.65697
  0
ARC
  5
13D
100
AcDbEntity
  8
M0
  6
DIVIDE
370
13
100
AcDbCircle
 10
191.439264
 20
183.689921
 40
0.919757
100
AcDbArc
 50
270.0
 51
450.0
  0
ARC
  5
13E
100
AcDbEntity
  8
M0
  6
DIVIDE
370
13
100
AcDbCircle
 10
186.840477
 20
183.689921
 40
0.919757
100
AcDbArc
 50
90.0
 51
270.0
  0
LINE
  5
13F
100
AcDbEntity
  8
M0
  6
CONTINUOUS
370
13
100
AcDbLine
 10
105.715081
 20
253.840272
 11
103.461676
 21
251.586867
  0
LINE
  5
140
100
AcDbEntity
  8
M0
  6
CONTINUOUS
370
13
100
AcDbLine
 10
105.715081
 20
251.982082
 11
103.461676
 21
249.728676
  0
LINE
  5
141
100
AcDbEntity
  8
M0
  6
CONTINUOUS
370
13
100
AcDbLine
 10
105.715081
 20
244.54932
 11
103.461676
 21
242.295914
  0
LINE
  5
142
100
AcDbEntity
  8
M0
  6
CONTINUOUS
370
13
100
AcDbLine
 10
105.715081
 20
248.265701
 11
103.461676
 21
246.012295
  0
LINE
  5
143
100
AcDbEntity
  8
M0
  6
CONTINUOUS
370
13
100
AcDbLine
 10
105.715081
 20
246.40751
 11
103.461676
 21
244.154105
  0
LINE
  5
144
100
AcDbEntity
  8
M0
  6
CONTINUOUS
370
13
100
AcDbLine
 10
119.821613
 20
248.265701
 11
117.568208
 21
246.012295
  0
LINE
  5
145
100
AcDbEntity
  8
M0
  6
CONTINUOUS
370
13
100
AcDbLine
 10
119.821613
 20
253.840272
 11
117.568208
 21
251.586867
  0
LINE
  5
146
100
AcDbEntity
  8
M0
  6
CONTINUOUS
370
13
100
AcDbLine
 10
119.821613
 20
250.123891
 11
117.568208
 21
247.870486
  0
LINE
  5
147
100
AcDbEntity
  8
M0
  6
CONTINUOUS
370
13
100
AcDbLine
 10
119.821613
 20
251.982082
 11
117.568208
 21
249.728676
  0
LINE
  5
148
100
AcDbEntity
  8
M0
  6
CONTINUOUS
370
13
100
AcDbLine
 10
105.715081
 20
242.691129
 11
103.461676
 21
240.437724
  0
LINE
  5
149
100
AcDbEntity
  8
M0
  6
CONTINUOUS
370
13
100
AcDbLine
 10
105.715081
 20
240.832939
 11
103.461676
 21
238.579533
  0
LINE
  5
14A
100
AcDbEntity
  8
M0
  6
CONTINUOUS
370
13
100
AcDbLine
 10
119.821613
 20
246.40751
 11
117.568208
 21
244.154105
  0
LINE
  5
14B
100
AcDbEntity
  8
M0
  6
CONTINUOUS
370
13
100
AcDbLine
 10
119.821613
 20
244.54932
 11
117.568208
 21
242.295914
  0
LINE
  5
14C
100
AcDbEntity
  8
M0
  6
CONTINUOUS
370
13
100
AcDbLine
 10
119.821613
 20
242.691129
 11
117.568208
 21
240.437724
  0
LINE
  5
14D
100
AcDbEntity
  8
M0
  6
CONTINUOUS
370
13
100
AcDbLine
 10
119.821613
 20
240.832939
 11
117.568208
 21
238.579533
  0
LINE
  5
14E
100
AcDbEntity
  8
M0
  6
CONTINUOUS
370
13
 62
     7
100
AcDbLine
 10
128.408096
 20
229.557805
 11
128.408096
 21
223.24107
  0
LINE
  5
14F
100
AcDbEntity
  8
M0
  6
CONTINUOUS
370
13
100
AcDbLine
 10
126.927792
 20
228.823101
 11
126.927792
 21
233.826963
  0
LINE
  5
150
100
AcDbEntity
  8
M0
  6
CONTINUOUS
370
13
100
AcDbLine
 10
121.453045
 20
234.60907
 11
123.820127
 21
234.60907
  0
LINE
  5
151
100
AcDbEntity
  8
M0
  6
CONTINUOUS
370
13
100
AcDbLine
 10
124.602234
 20
228.823101
 11
124.602234
 21
233.826963
  0
LINE
  5
152
100
AcDbEntity
  8
M0
  6
CONTINUOUS
370
13
100
AcDbLine
 10
122.21439
 20
228.823101
 11
122.21439
 21
233.826963
  0
LINE
  5
153
100
AcDbEntity
  8
M0
  6
CONTINUOUS
370
13
100
AcDbLine
 10
110.503553
 20
228.823101
 11
110.503553
 21
233.826963
  0
LINE
  5
154
100
AcDbEntity
  8
M0
  6
CONTINUOUS
370
13
 62
     7
100
AcDbLine
 10
108.915738
 20
229.557805
 11
108.915738
 21
223.24107
  0
LINE
  5
155
100
AcDbEntity
  8
M0
  6
CONTINUOUS
370
13
100
AcDbLine
 10
113.611217
 20
234.60907
 11
111.285659
 21
234.60907
  0
LINE
  5
156
100
AcDbEntity
  8
M0
  6
CONTINUOUS
370
13
 62
     7
100
AcDbLine
 10
128.408096
 20
229.557805
 11
108.915738
 21
229.557805
  0
LINE
  5
157
100
AcDbEntity
  8
M0
  6
CONTINUOUS
370
13
100
AcDbLine
 10
118.3412
 20
234.60907
 11
118.303857
 21
234.60907
  0
LINE
  5
158
100
AcDbEntity
  8
M0
  6
CONTINUOUS
370
13
100
AcDbLine
 10
118.324619
 20
234.60907
 11
115.999061
 21
234.60907
  0
LINE
  5
159
100
AcDbEntity
  8
M0
  6
CONTINUOUS
370
13
100
AcDbLine
 10
115.216954
 20
228.823101
 11
115.216954
 21
233.826963
  0
LINE
  5
15A
100
AcDbEntity
  8
M0
  6
CONTINUOUS
370
13
100
AcDbLine
 10
115.957537
 20
234.60907
 11
113.631979
 21
234.60907
  0
LINE
  5
15B
100
AcDbEntity
  8
M0
  6
CONTINUOUS
370
13
100
AcDbLine
 10
123.778603
 20
234.60907
 11
126.145685
 21
234.60907
  0
LINE
  5
15C
100
AcDbEntity
  8
M0
  6
CONTINUOUS
370
13
100
AcDbLine
 10
112.849872
 20
228.823101
 11
112.849872
 21
233.826963
  0
LINE
  5
15D
100
AcDbEntity
  8
M0
  6
CONTINUOUS
370
13
100
AcDbLine
 10
119.86807
 20
228.823101
 11
119.86807
 21
233.747244
  0
LINE
  5
15E
100
AcDbEntity
  8
M0
  6
CONTINUOUS
370
13
100
AcDbLine
 10
119.090037
 20
234.60907
 11
121.432284
 21
234.60907
  0
LINE
  5
15F
100
AcDbEntity
  8
M0
  6
CONTINUOUS
370
13
100
AcDbLine
 10
117.52175
 20
228.823101
 11
117.52175
 21
233.826963
  0
LINE
  5
160
100
AcDbEntity
  8
M0
  6
CONTINUOUS
370
13
100
AcDbLine
 10
121.473807
 20
218.516799
 11
123.799365
 21
218.516799
  0
LINE
  5
161
100
AcDbEntity
  8
M0
  6
CONTINUOUS
370
13
100
AcDbLine
 10
122.21439
 20
224.302767
 11
122.21439
 21
219.298905
  0
LINE
  5
162
100
AcDbEntity
  8
M0
  6
CONTINUOUS
370
13
100
AcDbLine
 10
124.581472
 20
224.302767
 11
124.581472
 21
219.298905
  0
LINE
  5
163
100
AcDbEntity
  8
M0
  6
CONTINUOUS
370
13
100
AcDbLine
 10
119.090144
 20
218.516799
 11
119.127487
 21
218.516799
  0
LINE
  5
164
100
AcDbEntity
  8
M0
  6
CONTINUOUS
370
13
100
AcDbLine
 10
123.820127
 20
218.516799
 11
126.145685
 21
218.516799
  0
LINE
  5
165
100
AcDbEntity
  8
M0
  6
CONTINUOUS
370
13
100
AcDbLine
 10
113.652741
 20
218.516799
 11
111.285659
 21
218.516799
  0
LINE
  5
166
100
AcDbEntity
  8
M0
  6
CONTINUOUS
370
13
100
AcDbLine
 10
119.909594
 20
224.302767
 11
119.909594
 21
219.298905
  0
LINE
  5
167
100
AcDbEntity
  8
M0
  6
CONTINUOUS
370
13
100
AcDbLine
 10
117.563274
 20
224.302767
 11
117.563274
 21
219.378625
  0
LINE
  5
168
100
AcDbEntity
  8
M0
  6
CONTINUOUS
370
13
100
AcDbLine
 10
119.106725
 20
218.516799
 11
121.432284
 21
218.516799
  0
LINE
  5
169
100
AcDbEntity
  8
M0
  6
CONTINUOUS
370
13
100
AcDbLine
 10
115.216954
 20
224.302767
 11
115.216954
 21
219.298905
  0
LINE
  5
16A
100
AcDbEntity
  8
M0
  6
CONTINUOUS
370
13
100
AcDbLine
 10
112.829111
 20
224.302767
 11
112.829111
 21
219.298905
  0
LINE
  5
16B
100
AcDbEntity
  8
M0
  6
CONTINUOUS
370
13
100
AcDbLine
 10
118.341307
 20
218.516799
 11
115.999061
 21
218.516799
  0
LINE
  5
16C
100
AcDbEntity
  8
M0
  6
CONTINUOUS
370
13
100
AcDbLine
 10
110.503553
 20
224.302767
 11
110.503553
 21
219.298905
  0
LINE
  5
16D
100
AcDbEntity
  8
M0
  6
CONTINUOUS
370
13
100
AcDbLine
 10
126.927792
 20
224.302767
 11
126.927792
 21
219.298905
  0
LINE
  5
16E
100
AcDbEntity
  8
M0
  6
CONTINUOUS
370
13
100
AcDbLine
 10
115.978299
 20
218.516799
 11
113.611217
 21
218.516799
  0
LINE
  5
16F
100
AcDbEntity
  8
M0
  6
CONTINUOUS
370
13
100
AcDbLine
 10
118.736434
 20
218.125745
 11
118.736434
 21
213.50501
  0
LINE
  5
170
100
AcDbEntity
  8
M0
  6
CONTINUOUS
370
13
100
AcDbLine
 10
105.715081
 20
250.123891
 11
103.461676
 21
247.870486
  0
CIRCLE
  5
171
100
AcDbEntity
  8
M0
  6
CONTINUOUS
370
13
100
AcDbCircle
 10
122.235152
 20
228.040995
 40
0.782107
  0
CIRCLE
  5
172
100
AcDbEntity
  8
M0
  6
CONTINUOUS
370
13
100
AcDbCircle
 10
119.888832
 20
228.040995
 40
0.782107
  0
CIRCLE
  5
173
100
AcDbEntity
  8
M0
  6
CONTINUOUS
370
13
100
AcDbCircle
 10
124.581472
 20
228.040995
 40
0.782107
  0
CIRCLE
  5
174
100
AcDbEntity
  8
M0
  6
CONTINUOUS
370
13
100
AcDbCircle
 10
126.927792
 20
228.040995
 40
0.782107
  0
CIRCLE
  5
175
100
AcDbEntity
  8
M0
  6
CONTINUOUS
370
13
100
AcDbCircle
 10
110.503553
 20
228.040995
 40
0.782107
  0
CIRCLE
  5
176
100
AcDbEntity
  8
M0
  6
CONTINUOUS
370
13
100
AcDbCircle
 10
115.196192
 20
228.040995
 40
0.782107
  0
CIRCLE
  5
177
100
AcDbEntity
  8
M0
  6
CONTINUOUS
370
13
100
AcDbCircle
 10
112.849872
 20
228.040995
 40
0.782107
  0
CIRCLE
  5
178
100
AcDbEntity
  8
M0
  6
CONTINUOUS
370
13
100
AcDbCircle
 10
117.542512
 20
228.040995
 40
0.782107
  0
ARC
  5
179
100
AcDbEntity
  8
M0
  6
CONTINUOUS
370
13
100
AcDbCircle
 10
111.285659
 20
233.826963
 40
0.782107
100
AcDbArc
 50
90.0
 51
180.0
  0
ARC
  5
17A
100
AcDbEntity
  8
M0
  6
CONTINUOUS
370
13
100
AcDbCircle
 10
118.303857
 20
233.826963
 40
0.782107
100
AcDbArc
 50
90.0
 51
180.0
  0
ARC
  5
17B
100
AcDbEntity
  8
M0
  6
CONTINUOUS
370
13
100
AcDbCircle
 10
118.303857
 20
235.000123
 40
0.391053
100
AcDbArc
 50
-90.0
 51
0.0
  0
ARC
  5
17C
100
AcDbEntity
  8
M0
  6
CONTINUOUS
370
13
100
AcDbCircle
 10
119.090037
 20
235.000123
 40
0.391053
100
AcDbArc
 50
180.0
 51
270.0
  0
ARC
  5
17D
100
AcDbEntity
  8
M0
  6
CONTINUOUS
370
13
100
AcDbCircle
 10
115.999061
 20
233.826963
 40
0.782107
100
AcDbArc
 50
90.0
 51
180.0
  0
ARC
  5
17E
100
AcDbEntity
  8
M0
  6
CONTINUOUS
370
13
100
AcDbCircle
 10
119.090037
 20
233.826963
 40
0.782107
100
AcDbArc
 50
0.0
 51
90.0
  0
ARC
  5
17F
100
AcDbEntity
  8
M0
  6
CONTINUOUS
370
13
100
AcDbCircle
 10
113.631979
 20
233.826963
 40
0.782107
100
AcDbArc
 50
90.0
 51
180.0
  0
ARC
  5
180
100
AcDbEntity
  8
M0
  6
CONTINUOUS
370
13
100
AcDbCircle
 10
123.820127
 20
233.826963
 40
0.782107
100
AcDbArc
 50
0.0
 51
90.0
  0
ARC
  5
181
100
AcDbEntity
  8
M0
  6
CONTINUOUS
370
13
100
AcDbCircle
 10
126.145685
 20
233.826963
 40
0.782107
100
AcDbArc
 50
0.0
 51
90.0
  0
ARC
  5
182
100
AcDbEntity
  8
M0
  6
CONTINUOUS
370
13
100
AcDbCircle
 10
121.432284
 20
233.826963
 40
0.782107
100
AcDbArc
 50
0.0
 51
90.0
  0
ARC
  5
183
100
AcDbEntity
  8
M0
  6
CONTINUOUS
370
13
100
AcDbCircle
 10
113.611217
 20
219.298905
 40
0.782107
100
AcDbArc
 50
180.0
 51
270.0
  0
ARC
  5
184
100
AcDbEntity
  8
M0
  6
CONTINUOUS
370
13
100
AcDbCircle
 10
115.999061
 20
219.298905
 40
0.782107
100
AcDbArc
 50
180.0
 51
270.0
  0
ARC
  5
185
100
AcDbEntity
  8
M0
  6
CONTINUOUS
370
13
100
AcDbCircle
 10
111.285659
 20
219.298905
 40
0.782107
100
AcDbArc
 50
180.0
 51
270.0
  0
ARC
  5
186
100
AcDbEntity
  8
M0
  6
CONTINUOUS
370
13
100
AcDbCircle
 10
121.432284
 20
219.298905
 40
0.782107
100
AcDbArc
 50
-90.0
 51
0.0
  0
ARC
  5
187
100
AcDbEntity
  8
M0
  6
CONTINUOUS
370
13
100
AcDbCircle
 10
118.341307
 20
218.125745
 40
0.391053
100
AcDbArc
 50
0.0
 51
90.0
  0
ARC
  5
188
100
AcDbEntity
  8
M0
  6
CONTINUOUS
370
13
100
AcDbCircle
 10
123.799365
 20
219.298905
 40
0.782107
100
AcDbArc
 50
-90.0
 51
0.0
  0
ARC
  5
189
100
AcDbEntity
  8
M0
  6
CONTINUOUS
370
13
100
AcDbCircle
 10
119.127487
 20
219.298905
 40
0.782107
100
AcDbArc
 50
-90.0
 51
0.0
  0
ARC
  5
18A
100
AcDbEntity
  8
M0
  6
CONTINUOUS
370
13
100
AcDbCircle
 10
126.145685
 20
219.298905
 40
0.782107
100
AcDbArc
 50
-90.0
 51
0.0
  0
ARC
  5
18B
100
AcDbEntity
  8
M0
  6
CONTINUOUS
370
13
100
AcDbCircle
 10
118.341307
 20
219.298905
 40
0.782107
100
AcDbArc
 50
180.0
 51
270.0
  0
ARC
  5
18C
100
AcDbEntity
  8
M0
  6
CONTINUOUS
370
13
100
AcDbCircle
 10
119.127487
 20
218.125745
 40
0.391053
100
AcDbArc
 50
90.0
 51
180.0
  0
TEXT
  5
18D
100
AcDbEntity
  8
M0
100
AcDbText
 10
178.575415
 20
224.51272
 40
2.688492
  1
ＣＮ９
 50
270.000001
 41
0.643939
  7
STANDARD
100
AcDbText
  0
LINE
  5
18E
100
AcDbEntity
  8
M0
  6
CONTINUOUS
370
13
100
AcDbLine
 10
185.918278
 20
224.74451
 11
185.918278
 21
224.087541
  0
LINE
  5
18F
100
AcDbEntity
  8
M0
  6
CONTINUOUS
370
13
100
AcDbLine
 10
183.348162
 20
225.40148
 11
192.749309
 21
225.40148
  0
LINE
  5
190
100
AcDbEntity
  8
M0
  6
CONTINUOUS
370
13
100
AcDbLine
 10
187.095797
 20
224.177177
 11
189.349202
 21
226.430583
  0
LINE
  5
191
100
AcDbEntity
  8
M0
  6
CONTINUOUS
370
13
100
AcDbLine
 10
189.498239
 20
224.177177
 11
191.751644
 21
226.430583
  0
LINE
  5
192
100
AcDbEntity
  8
M0
  6
CONTINUOUS
370
13
100
AcDbLine
 10
183.348162
 20
223.430571
 11
185.261308
 21
223.430571
  0
LINE
  5
193
100
AcDbEntity
  8
M0
  6
CONTINUOUS
370
13
100
AcDbLine
 10
183.348162
 20
227.372389
 11
185.261308
 21
227.372389
  0
LINE
  5
194
100
AcDbEntity
  8
M0
  6
CONTINUOUS
370
13
100
AcDbLine
 10
188.297018
 20
224.177177
 11
190.550423
 21
226.430583
  0
LINE
  5
195
100
AcDbEntity
  8
M0
  6
CONTINUOUS
370
13
100
AcDbLine
 10
185.918278
 20
226.058449
 11
185.918278
 21
226.715419
  0
CIRCLE
  5
196
100
AcDbEntity
  8
M0
  6
CONTINUOUS
370
13
100
AcDbCircle
 10
195.377187
 20
225.400833
 40
2.627878
  0
ARC
  5
197
100
AcDbEntity
  8
M0
  6
CONTINUOUS
370
13
100
AcDbCircle
 10
186.575248
 20
226.058449
 40
0.65697
100
AcDbArc
 50
180.0
 51
270.0
  0
ARC
  5
198
100
AcDbEntity
  8
M0
  6
CONTINUOUS
370
13
100
AcDbCircle
 10
186.575248
 20
224.74451
 40
0.65697
100
AcDbArc
 50
90.0
 51
180.0
  0
ARC
  5
199
100
AcDbEntity
  8
M0
  6
CONTINUOUS
370
13
100
AcDbCircle
 10
185.261308
 20
226.715419
 40
0.65697
100
AcDbArc
 50
0.0
 51
90.0
  0
ARC
  5
19A
100
AcDbEntity
  8
M0
  6
CONTINUOUS
370
13
100
AcDbCircle
 10
185.261308
 20
224.087541
 40
0.65697
100
AcDbArc
 50
270.0
 51
360.0
  0
TEXT
  5
19B
100
AcDbEntity
  8
M0
100
AcDbText
 10
198.964973
 20
223.56777
 40
3.666125
  1
給湯流量センサ（２系）
 50
1.001791E-005
 41
0.694444
  7
STANDARD
100
AcDbText
  0
LINE
  5
19C
100
AcDbEntity
  8
M0
  6
CONTINUOUS
370
13
100
AcDbLine
 10
183.348162
 20
219.488754
 11
185.261308
 21
219.488754
  0
LINE
  5
19D
100
AcDbEntity
  8
M0
  6
CONTINUOUS
370
13
100
AcDbLine
 10
187.095797
 20
216.293542
 11
189.349202
 21
218.546948
  0
LINE
  5
19E
100
AcDbEntity
  8
M0
  6
CONTINUOUS
370
13
100
AcDbLine
 10
183.348162
 20
217.517845
 11
192.734848
 21
217.517845
  0
LINE
  5
19F
100
AcDbEntity
  8
M0
  6
CONTINUOUS
370
13
100
AcDbLine
 10
188.297018
 20
216.293542
 11
190.550423
 21
218.546948
  0
LINE
  5
1A0
100
AcDbEntity
  8
M0
  6
CONTINUOUS
370
13
100
AcDbLine
 10
185.918278
 20
216.860876
 11
185.918278
 21
216.203906
  0
LINE
  5
1A1
100
AcDbEntity
  8
M0
  6
CONTINUOUS
370
13
100
AcDbLine
 10
183.348162
 20
215.546936
 11
185.261308
 21
215.546936
  0
LINE
  5
1A2
100
AcDbEntity
  8
M0
  6
CONTINUOUS
370
13
100
AcDbLine
 10
189.498239
 20
216.293542
 11
191.751644
 21
218.546948
  0
LINE
  5
1A3
100
AcDbEntity
  8
M0
  6
CONTINUOUS
370
13
100
AcDbLine
 10
185.918278
 20
218.174815
 11
185.918278
 21
218.831784
  0
CIRCLE
  5
1A4
100
AcDbEntity
  8
M0
  6
CONTINUOUS
370
13
100
AcDbCircle
 10
195.362726
 20
217.517845
 40
2.627878
  0
ARC
  5
1A5
100
AcDbEntity
  8
M0
  6
CONTINUOUS
370
13
100
AcDbCircle
 10
186.575248
 20
216.860876
 40
0.65697
100
AcDbArc
 50
90.0
 51
180.0
  0
ARC
  5
1A6
100
AcDbEntity
  8
M0
  6
CONTINUOUS
370
13
100
AcDbCircle
 10
186.575248
 20
218.174815
 40
0.65697
100
AcDbArc
 50
180.0
 51
270.0
  0
ARC
  5
1A7
100
AcDbEntity
  8
M0
  6
CONTINUOUS
370
13
100
AcDbCircle
 10
185.261308
 20
218.831784
 40
0.65697
100
AcDbArc
 50
0.0
 51
90.0
  0
ARC
  5
1A8
100
AcDbEntity
  8
M0
  6
CONTINUOUS
370
13
100
AcDbCircle
 10
185.261308
 20
216.203906
 40
0.65697
100
AcDbArc
 50
270.0
 51
360.0
  0
TEXT
  5
1A9
100
AcDbEntity
  8
M0
100
AcDbText
 10
198.964973
 20
215.684782
 40
3.666125
  1
給湯流量センサ（１系）
 50
1.001791E-005
 41
0.694444
  7
STANDARD
100
AcDbText
  0
LINE
  5
1AA
100
AcDbEntity
  8
M0
  6
CONTINUOUS
370
13
 62
     7
100
AcDbLine
 10
183.888794
 20
214.151195
 11
183.888794
 21
229.089129
  0
LINE
  5
1AB
100
AcDbEntity
  8
M0
  6
CONTINUOUS
370
13
 62
     7
100
AcDbLine
 10
183.888794
 20
214.151195
 11
181.493592
 21
214.151195
  0
LINE
  5
1AC
100
AcDbEntity
  8
M0
  6
CONTINUOUS
370
13
 62
     7
100
AcDbLine
 10
181.493592
 20
214.151195
 11
181.493592
 21
229.089129
  0
LINE
  5
1AD
100
AcDbEntity
  8
M0
  6
CONTINUOUS
370
13
 62
     7
100
AcDbLine
 10
183.888794
 20
229.089129
 11
181.493592
 21
229.089129
  0
CIRCLE
  5
1AE
100
AcDbEntity
  8
M0
  6
CONTINUOUS
370
13
100
AcDbCircle
 10
182.691193
 20
215.546936
 40
0.65697
  0
CIRCLE
  5
1AF
100
AcDbEntity
  8
M0
  6
CONTINUOUS
370
13
100
AcDbCircle
 10
182.691193
 20
227.372389
 40
0.65697
  0
CIRCLE
  5
1B0
100
AcDbEntity
  8
M0
  6
CONTINUOUS
370
13
100
AcDbCircle
 10
182.691193
 20
223.430571
 40
0.65697
  0
CIRCLE
  5
1B1
100
AcDbEntity
  8
M0
  6
CONTINUOUS
370
13
100
AcDbCircle
 10
182.691193
 20
221.459662
 40
0.65697
  0
CIRCLE
  5
1B2
100
AcDbEntity
  8
M0
  6
CONTINUOUS
370
13
100
AcDbCircle
 10
182.691193
 20
217.517845
 40
0.65697
  0
CIRCLE
  5
1B3
100
AcDbEntity
  8
M0
  6
CONTINUOUS
370
13
100
AcDbCircle
 10
182.691193
 20
225.40148
 40
0.65697
  0
CIRCLE
  5
1B4
100
AcDbEntity
  8
M0
  6
CONTINUOUS
370
13
100
AcDbCircle
 10
182.691193
 20
219.488754
 40
0.65697
  0
LINE
  5
1B5
100
AcDbEntity
  8
M0
  6
CONTINUOUS
370
13
 62
     7
100
AcDbLine
 10
102.302924
 20
117.582738
 11
107.435498
 21
117.582738
  0
LINE
  5
1B6
100
AcDbEntity
  8
M0
  6
CONTINUOUS
370
13
100
AcDbLine
 10
104.212241
 20
126.32793
 11
69.313067
 21
126.32793
  0
LINE
  5
1B7
100
AcDbEntity
  8
M0
  6
CONTINUOUS
370
13
 62
     7
100
AcDbLine
 10
102.302924
 20
136.091228
 11
102.302924
 21
117.582738
  0
LINE
  5
1B8
100
AcDbEntity
  8
M0
  6
CONTINUOUS
370
13
 62
     7
100
AcDbLine
 10
107.435498
 20
117.582738
 11
107.435498
 21
136.091228
  0
LINE
  5
1B9
100
AcDbEntity
  8
M0
  6
CONTINUOUS
370
13
 62
     7
100
AcDbLine
 10
102.302924
 20
136.091228
 11
107.435498
 21
136.091228
  0
CIRCLE
  5
1BA
100
AcDbEntity
  8
M0
  6
CONTINUOUS
370
13
100
AcDbCircle
 10
104.869211
 20
126.32793
 40
0.65697
  0
CIRCLE
  5
1BB
100
AcDbEntity
  8
M0
  6
CONTINUOUS
370
13
100
AcDbCircle
 10
104.869211
 20
119.225162
 40
0.65697
  0
CIRCLE
  5
1BC
100
AcDbEntity
  8
M0
  6
CONTINUOUS
370
13
100
AcDbCircle
 10
104.869211
 20
122.776546
 40
0.65697
  0
CIRCLE
  5
1BD
100
AcDbEntity
  8
M0
  6
CONTINUOUS
370
13
100
AcDbCircle
 10
104.869211
 20
133.430697
 40
0.65697
  0
CIRCLE
  5
1BE
100
AcDbEntity
  8
M0
  6
CONTINUOUS
370
13
100
AcDbCircle
 10
104.869211
 20
129.879314
 40
0.65697
  0
LINE
  5
1BF
100
AcDbEntity
  8
M0
  6
CONTINUOUS
370
25
100
AcDbLine
 10
403.745834
 20
274.989378
 11
403.745834
 21
195.880245
  0
LINE
  5
1C0
100
AcDbEntity
  8
M0
  6
CONTINUOUS
370
13
100
AcDbLine
 10
69.313067
 20
110.084485
 11
69.313067
 21
126.32793
  0
LINE
  5
1C1
100
AcDbEntity
  8
M0
  6
CONTINUOUS
370
13
100
AcDbLine
 10
78.971475
 20
71.564804
 11
78.971475
 21
122.776546
  0
LINE
  5
1C2
100
AcDbEntity
  8
M0
  6
CONTINUOUS
370
13
100
AcDbLine
 10
84.511526
 20
68.407323
 11
84.511526
 21
119.225162
  0
LINE
  5
1C3
100
AcDbEntity
  8
M0
  6
CONTINUOUS
370
13
100
AcDbLine
 10
96.743679
 20
161.479997
 11
96.743679
 21
159.410271
  0
LINE
  5
1C4
100
AcDbEntity
  8
M0
  6
CONTINUOUS
370
13
100
AcDbLine
 10
103.527898
 20
161.005196
 11
97.400649
 21
161.005196
  0
LINE
  5
1C5
100
AcDbEntity
  8
M0
  6
CONTINUOUS
370
13
100
AcDbLine
 10
91.917922
 20
171.842768
 11
89.664516
 21
169.589363
  0
LINE
  5
1C6
100
AcDbEntity
  8
M0
  6
CONTINUOUS
370
13
100
AcDbLine
 10
93.529495
 20
163.361269
 11
91.27609
 21
161.107864
  0
LINE
  5
1C7
100
AcDbEntity
  8
M0
  6
CONTINUOUS
370
13
100
AcDbLine
 10
74.922285
 20
166.426516
 11
83.546597
 21
166.426516
  0
LINE
  5
1C8
100
AcDbEntity
  8
M0
  6
CONTINUOUS
370
13
100
AcDbLine
 10
80.374616
 20
165.202213
 11
82.628022
 21
167.455619
  0
LINE
  5
1C9
100
AcDbEntity
  8
M0
  6
CONTINUOUS
370
13
100
AcDbLine
 10
75.569732
 20
165.202213
 11
77.823138
 21
167.455619
  0
LINE
  5
1CA
100
AcDbEntity
  8
M0
  6
CONTINUOUS
370
13
100
AcDbLine
 10
92.328274
 20
163.361269
 11
90.074869
 21
161.107864
  0
LINE
  5
1CB
100
AcDbEntity
  8
M0
  6
CONTINUOUS
370
13
100
AcDbLine
 10
76.770953
 20
165.202213
 11
79.024359
 21
167.455619
  0
LINE
  5
1CC
100
AcDbEntity
  8
M0
  6
CONTINUOUS
370
13
100
AcDbLine
 10
96.743679
 20
162.793936
 11
96.743679
 21
164.852016
  0
LINE
  5
1CD
100
AcDbEntity
  8
M0
  6
CONTINUOUS
370
13
100
AcDbLine
 10
91.127053
 20
163.361269
 11
88.873648
 21
161.107864
  0
LINE
  5
1CE
100
AcDbEntity
  8
M0
  6
CONTINUOUS
370
13
100
AcDbLine
 10
103.527898
 20
163.257091
 11
97.400649
 21
163.257091
  0
LINE
  5
1CF
100
AcDbEntity
  8
M0
  6
CONTINUOUS
370
13
100
AcDbLine
 10
103.527898
 20
165.508985
 11
97.400649
 21
165.508985
  0
LINE
  5
1D0
100
AcDbEntity
  8
M0
  6
CONTINUOUS
370
13
100
AcDbLine
 10
77.972174
 20
165.202213
 11
80.22558
 21
167.455619
  0
LINE
  5
1D1
100
AcDbEntity
  8
M0
  6
CONTINUOUS
370
13
100
AcDbLine
 10
89.925832
 20
163.361269
 11
87.672427
 21
161.107864
  0
LINE
  5
1D2
100
AcDbEntity
  8
M0
  6
CONTINUOUS
370
13
100
AcDbLine
 10
103.527898
 20
158.753302
 11
97.400649
 21
158.753302
  0
LINE
  5
1D3
100
AcDbEntity
  8
M0
  6
CONTINUOUS
370
13
100
AcDbLine
 10
79.173395
 20
165.202213
 11
81.426801
 21
167.455619
  0
LINE
  5
1D4
100
AcDbEntity
  8
M0
  6
CONTINUOUS
370
13
100
AcDbLine
 10
96.08671
 20
162.136967
 11
83.546597
 21
162.136967
  0
LINE
  5
1D5
100
AcDbEntity
  8
M0
  6
CONTINUOUS
370
13
100
AcDbLine
 10
83.546597
 20
170.716066
 11
83.546597
 21
162.136967
  0
LINE
  5
1D6
100
AcDbEntity
  8
M0
  6
CONTINUOUS
370
13
 62
     7
100
AcDbLine
 10
128.408096
 20
223.24107
 11
108.915738
 21
223.24107
  0
LINE
  5
1D7
100
AcDbEntity
  8
M0
  6
CONTINUOUS
370
13
100
AcDbLine
 10
118.69491
 20
235.000123
 11
118.69491
 21
254.450157
  0
LINE
  5
1D8
100
AcDbEntity
  8
M0
  6
CONTINUOUS
370
13
100
AcDbLine
 10
104.588379
 20
213.50501
 11
104.588379
 21
254.450157
  0
LINE
  5
1D9
100
AcDbEntity
  8
M0
  6
CONTINUOUS
370
13
100
AcDbLine
 10
118.736434
 20
213.50501
 11
104.588379
 21
213.50501
  0
LINE
  5
1DA
100
AcDbEntity
  8
M0
  6
CONTINUOUS
370
13
100
AcDbLine
 10
104.212241
 20
122.776546
 11
78.971475
 21
122.776546
  0
LINE
  5
1DB
100
AcDbEntity
  8
M0
  6
CONTINUOUS
370
13
100
AcDbLine
 10
104.212241
 20
119.225162
 11
84.511526
 21
119.225162
  0
LINE
  5
1DC
100
AcDbEntity
  8
M0
  6
CONTINUOUS
370
13
 62
     7
100
AcDbLine
 10
167.187781
 20
112.735307
 11
174.794722
 21
112.735307
  0
LINE
  5
1DD
100
AcDbEntity
  8
M0
  6
CONTINUOUS
370
13
 62
     7
100
AcDbLine
 10
106.066812
 20
166.706181
 11
106.066812
 21
148.449522
  0
LINE
  5
1DE
100
AcDbEntity
  8
M0
  6
CONTINUOUS
370
13
 62
     7
100
AcDbLine
 10
167.187781
 20
112.735307
 11
167.187781
 21
115.87188
  0
LINE
  5
1DF
100
AcDbEntity
  8
M0
  6
CONTINUOUS
370
13
 62
     7
100
AcDbLine
 10
174.794722
 20
112.735307
 11
174.794722
 21
115.87188
  0
LINE
  5
1E0
100
AcDbEntity
  8
M0
  6
CONTINUOUS
370
13
 62
     7
100
AcDbLine
 10
167.187781
 20
115.87188
 11
174.794722
 21
115.87188
  0
LINE
  5
1E1
100
AcDbEntity
  8
M0
  6
CONTINUOUS
370
13
 62
     7
100
AcDbLine
 10
102.302924
 20
166.706181
 11
102.302924
 21
148.449522
  0
LINE
  5
1E2
100
AcDbEntity
  8
M0
  6
CONTINUOUS
370
13
 62
     7
100
AcDbLine
 10
102.302924
 20
166.706181
 11
106.066812
 21
166.706181
  0
LINE
  5
1E3
100
AcDbEntity
  8
M0
  6
CONTINUOUS
370
13
 62
     7
100
AcDbLine
 10
102.302924
 20
148.449522
 11
106.066812
 21
148.449522
  0
LINE
  5
1E4
100
AcDbEntity
  8
M0
  6
CONTINUOUS
370
13
100
AcDbLine
 10
169.231117
 20
113.492297
 11
169.231117
 21
99.169936
  0
CIRCLE
  5
1E5
100
AcDbEntity
  8
M0
  6
CONTINUOUS
370
13
100
AcDbCircle
 10
72.294407
 20
166.426516
 40
2.627878
  0
CIRCLE
  5
1E6
100
AcDbEntity
  8
M0
  6
CONTINUOUS
370
13
100
AcDbCircle
 10
117.542512
 20
225.084874
 40
0.782107
  0
CIRCLE
  5
1E7
100
AcDbEntity
  8
M0
  6
CONTINUOUS
370
13
100
AcDbCircle
 10
119.888832
 20
225.084874
 40
0.782107
  0
CIRCLE
  5
1E8
100
AcDbEntity
  8
M0
  6
CONTINUOUS
370
13
100
AcDbCircle
 10
104.588379
 20
257.078035
 40
2.627878
  0
CIRCLE
  5
1E9
100
AcDbEntity
  8
M0
  6
CONTINUOUS
370
13
100
AcDbCircle
 10
118.69491
 20
257.078035
 40
2.627878
  0
CIRCLE
  5
1EA
100
AcDbEntity
  8
M0
  6
CONTINUOUS
370
13
100
AcDbCircle
 10
126.927792
 20
225.084874
 40
0.782107
  0
CIRCLE
  5
1EB
100
AcDbEntity
  8
M0
  6
CONTINUOUS
370
13
100
AcDbCircle
 10
115.196192
 20
225.084874
 40
0.782107
  0
CIRCLE
  5
1EC
100
AcDbEntity
  8
M0
  6
CONTINUOUS
370
13
100
AcDbCircle
 10
112.849872
 20
225.084874
 40
0.782107
  0
CIRCLE
  5
1ED
100
AcDbEntity
  8
M0
  6
CONTINUOUS
370
13
100
AcDbCircle
 10
124.581472
 20
225.084874
 40
0.782107
  0
CIRCLE
  5
1EE
100
AcDbEntity
  8
M0
  6
CONTINUOUS
370
13
100
AcDbCircle
 10
110.503553
 20
225.084874
 40
0.782107
  0
CIRCLE
  5
1EF
100
AcDbEntity
  8
M0
  6
CONTINUOUS
370
13
100
AcDbCircle
 10
122.235152
 20
225.084874
 40
0.782107
  0
CIRCLE
  5
1F0
100
AcDbEntity
  8
M0
  6
CONTINUOUS
370
13
100
AcDbCircle
 10
173.034588
 20
114.039772
 40
0.547475
  0
CIRCLE
  5
1F1
100
AcDbEntity
  8
M0
  6
CONTINUOUS
370
13
100
AcDbCircle
 10
104.184868
 20
158.753302
 40
0.65697
  0
CIRCLE
  5
1F2
100
AcDbEntity
  8
M0
  6
CONTINUOUS
370
13
100
AcDbCircle
 10
104.184868
 20
149.624972
 40
0.65697
  0
CIRCLE
  5
1F3
100
AcDbEntity
  8
M0
  6
CONTINUOUS
370
13
100
AcDbCircle
 10
104.184868
 20
151.876867
 40
0.65697
  0
CIRCLE
  5
1F4
100
AcDbEntity
  8
M0
  6
CONTINUOUS
370
13
100
AcDbCircle
 10
104.184868
 20
156.380656
 40
0.65697
  0
CIRCLE
  5
1F5
100
AcDbEntity
  8
M0
  6
CONTINUOUS
370
13
100
AcDbCircle
 10
104.184868
 20
163.257091
 40
0.65697
  0
CIRCLE
  5
1F6
100
AcDbEntity
  8
M0
  6
CONTINUOUS
370
13
100
AcDbCircle
 10
104.184868
 20
165.508985
 40
0.65697
  0
CIRCLE
  5
1F7
100
AcDbEntity
  8
M0
  6
CONTINUOUS
370
13
100
AcDbCircle
 10
104.184868
 20
161.005196
 40
0.65697
  0
CIRCLE
  5
1F8
100
AcDbEntity
  8
M0
  6
CONTINUOUS
370
13
100
AcDbCircle
 10
169.231117
 20
114.039772
 40
0.547475
  0
CIRCLE
  5
1F9
100
AcDbEntity
  8
M0
  6
CONTINUOUS
370
13
100
AcDbCircle
 10
104.184868
 20
154.128761
 40
0.65697
  0
ARC
  5
1FA
100
AcDbEntity
  8
M0
  6
CONTINUOUS
370
13
100
AcDbCircle
 10
97.400649
 20
162.600121
 40
0.65697
100
AcDbArc
 50
90.0
 51
180.0
  0
ARC
  5
1FB
100
AcDbEntity
  8
M0
  6
CONTINUOUS
370
13
100
AcDbCircle
 10
97.400649
 20
164.852016
 40
0.65697
100
AcDbArc
 50
90.0
 51
180.0
  0
ARC
  5
1FC
100
AcDbEntity
  8
M0
  6
CONTINUOUS
370
13
100
AcDbCircle
 10
96.08671
 20
162.793936
 40
0.65697
100
AcDbArc
 50
270.0
 51
360.0
  0
ARC
  5
1FD
100
AcDbEntity
  8
M0
  6
CONTINUOUS
370
13
100
AcDbCircle
 10
96.08671
 20
161.479997
 40
0.65697
100
AcDbArc
 50
0.0
 51
90.0
  0
ARC
  5
1FE
100
AcDbEntity
  8
M0
  6
CONTINUOUS
370
13
100
AcDbCircle
 10
97.400649
 20
159.410271
 40
0.65697
100
AcDbArc
 50
180.0
 51
270.0
  0
ARC
  5
1FF
100
AcDbEntity
  8
M0
  6
CONTINUOUS
370
13
100
AcDbCircle
 10
97.400649
 20
161.662166
 40
0.65697
100
AcDbArc
 50
180.0
 51
270.0
  0
TEXT
  5
200
100
AcDbEntity
  8
M0
100
AcDbText
 10
125.663736
 20
26.98934
 40
3.78
  1
※必ずヒートポンプ接続用端子台とヒートポンプ側端子台の色（極性）を合わせて
 41
0.648148
  7
STANDARD
100
AcDbText
  0
TEXT
  5
201
100
AcDbEntity
  8
M0
100
AcDbText
 10
125.663736
 20
21.697348
 40
3.78
  1
接続してください。間違って接続しますと、機器の故障の原因となります。
 41
0.648148
  7
STANDARD
100
AcDbText
  0
TEXT
  5
202
100
AcDbEntity
  8
M0
100
AcDbText
 10
167.953071
 20
115.871878
 40
2.688492
  1
ＣＮ６
 41
0.643939
  7
STANDARD
100
AcDbText
  0
TEXT
  5
203
100
AcDbEntity
  8
M0
100
AcDbText
 10
106.066815
 20
162.603457
 40
2.688492
  1
ＣＮ３０２
 50
270.000001
 41
0.643939
  7
STANDARD
100
AcDbText
  0
LINE
  5
204
100
AcDbEntity
  8
M0
  6
CONTINUOUS
370
13
100
AcDbLine
 10
169.231117
 20
99.169936
 11
152.05751
 21
99.169936
  0
LINE
  5
205
100
AcDbEntity
  8
M0
  6
CONTINUOUS
370
13
100
AcDbLine
 10
140.287381
 20
148.909031
 11
140.287381
 21
150.165002
  0
LINE
  5
206
100
AcDbEntity
  8
M0
  6
CONTINUOUS
370
13
100
AcDbLine
 10
141.888638
 20
149.903341
 11
141.909677
 21
149.882303
  0
LINE
  5
207
100
AcDbEntity
  8
M0
  6
CONTINUOUS
370
13
100
AcDbLine
 10
144.055294
 20
151.002316
 11
144.055294
 21
152.258287
  0
LINE
  5
208
100
AcDbEntity
  8
M0
  6
CONTINUOUS
370
13
100
AcDbLine
 10
141.444585
 20
149.903341
 11
141.909677
 21
149.43825
  0
LINE
  5
209
100
AcDbEntity
  8
M0
  6
CONTINUOUS
370
13
100
AcDbLine
 10
141.14855
 20
149.903341
 11
141.8812
 21
149.170691
  0
LINE
  5
20A
100
AcDbEntity
  8
M0
  6
CONTINUOUS
370
13
100
AcDbLine
 10
140.604719
 20
163.305374
 11
141.965355
 21
163.305374
  0
LINE
  5
20B
100
AcDbEntity
  8
M0
  6
CONTINUOUS
370
13
100
AcDbLine
 10
144.055294
 20
153.095601
 11
144.055294
 21
154.351573
  0
LINE
  5
20C
100
AcDbEntity
  8
M0
  6
CONTINUOUS
370
13
100
AcDbLine
 10
140.604719
 20
164.038024
 11
141.965355
 21
164.038024
  0
LINE
  5
20D
100
AcDbEntity
  8
M0
  6
CONTINUOUS
370
13
100
AcDbLine
 10
146.881229
 20
148.071717
 11
137.984767
 21
148.071717
  0
LINE
  5
20E
100
AcDbEntity
  8
M0
  6
CONTINUOUS
370
13
100
AcDbLine
 10
140.343059
 20
168.486255
 11
144.110972
 21
168.486255
  0
LINE
  5
20F
100
AcDbEntity
  8
M0
  6
CONTINUOUS
370
13
100
AcDbLine
 10
146.936907
 20
169.323569
 11
138.040445
 21
169.323569
  0
LINE
  5
210
100
AcDbEntity
  8
M0
  6
CONTINUOUS
370
13
100
AcDbLine
 10
146.881229
 20
148.071717
 11
146.881229
 21
157.284858
  0
LINE
  5
211
100
AcDbEntity
  8
M0
  6
CONTINUOUS
370
13
100
AcDbLine
 10
140.287381
 20
153.095601
 11
144.055294
 21
153.095601
  0
LINE
  5
212
100
AcDbEntity
  8
M0
  6
CONTINUOUS
370
13
100
AcDbLine
 10
140.343059
 20
166.39297
 11
144.110972
 21
166.39297
  0
LINE
  5
213
100
AcDbEntity
  8
M0
  6
CONTINUOUS
370
13
100
AcDbLine
 10
142.227015
 20
163.043713
 11
142.227015
 21
164.299684
  0
LINE
  5
214
100
AcDbEntity
  8
M0
  6
CONTINUOUS
370
13
100
AcDbLine
 10
140.287381
 20
148.909031
 11
144.055294
 21
148.909031
  0
LINE
  5
215
100
AcDbEntity
  8
M0
  6
CONTINUOUS
370
13
100
AcDbLine
 10
140.604719
 20
163.305374
 11
140.604719
 21
164.038024
  0
LINE
  5
216
100
AcDbEntity
  8
M0
  6
CONTINUOUS
370
13
100
AcDbLine
 10
140.287381
 20
151.002316
 11
140.287381
 21
152.258287
  0
LINE
  5
217
100
AcDbEntity
  8
M0
  6
CONTINUOUS
370
13
100
AcDbLine
 10
140.343059
 20
167.230284
 11
144.110972
 21
167.230284
  0
LINE
  5
218
100
AcDbEntity
  8
M0
  6
CONTINUOUS
370
13
100
AcDbLine
 10
137.984767
 20
148.071717
 11
146.881229
 21
148.071717
  0
LINE
  5
219
100
AcDbEntity
  8
M0
  6
CONTINUOUS
370
13
100
AcDbLine
 10
141.296568
 20
149.903341
 11
141.909677
 21
149.290232
  0
LINE
  5
21A
100
AcDbEntity
  8
M0
  6
CONTINUOUS
370
13
100
AcDbLine
 10
141.965355
 20
163.305374
 11
141.965355
 21
164.038024
  0
LINE
  5
21B
100
AcDbEntity
  8
M0
  6
CONTINUOUS
370
13
100
AcDbLine
 10
140.604719
 20
163.453391
 11
140.752737
 21
163.305374
  0
LINE
  5
21C
100
AcDbEntity
  8
M0
  6
CONTINUOUS
370
13
100
AcDbLine
 10
141.352246
 20
166.131309
 11
141.965355
 21
165.5182
  0
LINE
  5
21D
100
AcDbEntity
  8
M0
  6
CONTINUOUS
370
13
100
AcDbLine
 10
140.604719
 20
163.601409
 11
140.900755
 21
163.305374
  0
LINE
  5
21E
100
AcDbEntity
  8
M0
  6
CONTINUOUS
370
13
100
AcDbLine
 10
141.204228
 20
164.038024
 11
141.936878
 21
163.305374
  0
LINE
  5
21F
100
AcDbEntity
  8
M0
  6
CONTINUOUS
370
13
100
AcDbLine
 10
140.343059
 20
160.950428
 11
140.343059
 21
162.206399
  0
LINE
  5
220
100
AcDbEntity
  8
M0
  6
CONTINUOUS
370
13
100
AcDbLine
 10
140.604719
 20
163.897444
 11
141.19679
 21
163.305374
  0
LINE
  5
221
100
AcDbEntity
  8
M0
  6
CONTINUOUS
370
13
100
AcDbLine
 10
140.549041
 20
149.762762
 11
141.141112
 21
149.170691
  0
LINE
  5
222
100
AcDbEntity
  8
M0
  6
CONTINUOUS
370
13
100
AcDbLine
 10
140.908193
 20
166.131309
 11
141.640843
 21
165.398659
  0
LINE
  5
223
100
AcDbEntity
  8
M0
  6
CONTINUOUS
370
13
100
AcDbLine
 10
140.760175
 20
166.131309
 11
141.492825
 21
165.398659
  0
LINE
  5
224
100
AcDbEntity
  8
M0
  6
CONTINUOUS
370
13
100
AcDbLine
 10
140.612158
 20
164.038024
 11
141.344807
 21
163.305374
  0
LINE
  5
225
100
AcDbEntity
  8
M0
  6
CONTINUOUS
370
13
100
AcDbLine
 10
141.796298
 20
164.038024
 11
141.965355
 21
163.868967
  0
LINE
  5
226
100
AcDbEntity
  8
M0
  6
CONTINUOUS
370
13
100
AcDbLine
 10
141.648281
 20
166.131309
 11
141.965355
 21
165.814235
  0
LINE
  5
227
100
AcDbEntity
  8
M0
  6
CONTINUOUS
370
13
100
AcDbLine
 10
140.604719
 20
163.749427
 11
141.048772
 21
163.305374
  0
LINE
  5
228
100
AcDbEntity
  8
M0
  6
CONTINUOUS
370
13
100
AcDbLine
 10
140.343059
 20
163.043713
 11
144.110972
 21
163.043713
  0
LINE
  5
229
100
AcDbEntity
  8
M0
  6
CONTINUOUS
370
13
100
AcDbLine
 10
141.204228
 20
166.131309
 11
141.936878
 21
165.398659
  0
LINE
  5
22A
100
AcDbEntity
  8
M0
  6
CONTINUOUS
370
13
100
AcDbLine
 10
141.05621
 20
166.131309
 11
141.78886
 21
165.398659
  0
LINE
  5
22B
100
AcDbEntity
  8
M0
  6
CONTINUOUS
370
13
100
AcDbLine
 10
141.500263
 20
164.038024
 11
141.965355
 21
163.572932
  0
LINE
  5
22C
100
AcDbEntity
  8
M0
  6
CONTINUOUS
370
13
100
AcDbLine
 10
141.05621
 20
164.038024
 11
141.78886
 21
163.305374
  0
LINE
  5
22D
100
AcDbEntity
  8
M0
  6
CONTINUOUS
370
13
100
AcDbLine
 10
140.549041
 20
151.411994
 11
140.697059
 21
151.263977
  0
LINE
  5
22E
100
AcDbEntity
  8
M0
  6
CONTINUOUS
370
13
100
AcDbLine
 10
141.444585
 20
154.089912
 11
141.909677
 21
153.62482
  0
LINE
  5
22F
100
AcDbEntity
  8
M0
  6
CONTINUOUS
370
13
100
AcDbLine
 10
140.549041
 20
151.70803
 11
140.993094
 21
151.263977
  0
LINE
  5
230
100
AcDbEntity
  8
M0
  6
CONTINUOUS
370
13
100
AcDbLine
 10
140.549041
 20
153.949332
 11
141.141112
 21
153.357262
  0
LINE
  5
231
100
AcDbEntity
  8
M0
  6
CONTINUOUS
370
13
100
AcDbLine
 10
140.704497
 20
154.089912
 11
141.437147
 21
153.357262
  0
LINE
  5
232
100
AcDbEntity
  8
M0
  6
CONTINUOUS
370
13
100
AcDbLine
 10
141.592603
 20
154.089912
 11
141.909677
 21
153.772838
  0
LINE
  5
233
100
AcDbEntity
  8
M0
  6
CONTINUOUS
370
13
100
AcDbLine
 10
140.852515
 20
151.996627
 11
141.585165
 21
151.263977
  0
LINE
  5
234
100
AcDbEntity
  8
M0
  6
CONTINUOUS
370
13
100
AcDbLine
 10
140.549041
 20
151.560012
 11
140.845077
 21
151.263977
  0
LINE
  5
235
100
AcDbEntity
  8
M0
  6
CONTINUOUS
370
13
100
AcDbLine
 10
140.549041
 20
151.856047
 11
141.141112
 21
151.263977
  0
LINE
  5
236
100
AcDbEntity
  8
M0
  6
CONTINUOUS
370
13
100
AcDbLine
 10
141.296568
 20
151.996627
 11
141.909677
 21
151.383518
  0
LINE
  5
237
100
AcDbEntity
  8
M0
  6
CONTINUOUS
370
13
100
AcDbLine
 10
140.852515
 20
154.089912
 11
141.585165
 21
153.357262
  0
LINE
  5
238
100
AcDbEntity
  8
M0
  6
CONTINUOUS
370
13
100
AcDbLine
 10
140.704497
 20
151.996627
 11
141.437147
 21
151.263977
  0
LINE
  5
239
100
AcDbEntity
  8
M0
  6
CONTINUOUS
370
13
100
AcDbLine
 10
141.444585
 20
151.996627
 11
141.909677
 21
151.531535
  0
TEXT
  5
23A
100
AcDbEntity
  8
M0
100
AcDbText
 10
195.117389
 20
148.776094
 40
3.666125
  1
タンクセンサ２（１２０Ｌ部）
 41
0.694444
  7
STANDARD
100
AcDbText
  0
TEXT
  5
23B
100
AcDbEntity
  8
M0
100
AcDbText
 10
195.117389
 20
145.082646
 40
3.666125
  1
タンクセンサ３（２６０Ｌ部）
 41
0.694444
  7
STANDARD
100
AcDbText
  0
TEXT
  5
23C
100
AcDbEntity
  8
M0
100
AcDbText
 10
195.117389
 20
141.389197
 40
3.666125
  1
タンクセンサ４（４００Ｌ部）
 41
0.694444
  7
STANDARD
100
AcDbText
  0
TEXT
  5
23D
100
AcDbEntity
  8
M0
100
AcDbText
 10
195.117389
 20
137.695748
 40
3.666125
  1
タンクセンサ５（最下部）
 41
0.694444
  7
STANDARD
100
AcDbText
  0
TEXT
  5
23E
100
AcDbEntity
  8
M0
100
AcDbText
 10
31.235866
 20
164.593454
 40
3.666125
  1
給湯循環ポンプ（１系）
 41
0.694444
  7
STANDARD
100
AcDbText
  0
TEXT
  5
23F
100
AcDbEntity
  8
M0
100
AcDbText
 10
145.709225
 20
168.605488
 40
1.046643
  1
ＯＮ
 50
270.000001
 41
0.833334
  7
STANDARD
100
AcDbText
  0
TEXT
  5
240
100
AcDbEntity
  8
M0
100
AcDbText
 10
144.258076
 20
154.144291
 40
1.046643
  1
６
 50
270.000001
 41
0.983333
  7
STANDARD
100
AcDbText
  0
TEXT
  5
241
100
AcDbEntity
  8
M0
100
AcDbText
 10
144.258076
 20
149.957676
 40
1.046643
  1
８
 50
270.000001
 41
0.983333
  7
STANDARD
100
AcDbText
  0
TEXT
  5
242
100
AcDbEntity
  8
M0
100
AcDbText
 10
144.313748
 20
161.999115
 40
1.046643
  1
４
 50
270.000001
 41
0.983333
  7
STANDARD
100
AcDbText
  0
TEXT
  5
243
100
AcDbEntity
  8
M0
100
AcDbText
 10
144.313748
 20
166.185646
 40
1.046643
  1
２
 50
270.000001
 41
0.983333
  7
STANDARD
100
AcDbText
  0
TEXT
  5
244
100
AcDbEntity
  8
M0
100
AcDbText
 10
144.258076
 20
156.237552
 40
1.046643
  1
５
 50
270.000001
 41
0.983333
  7
STANDARD
100
AcDbText
  0
TEXT
  5
245
100
AcDbEntity
  8
M0
100
AcDbText
 10
144.258076
 20
152.050946
 40
1.046643
  1
７
 50
270.000001
 41
0.983333
  7
STANDARD
100
AcDbText
  0
TEXT
  5
246
100
AcDbEntity
  8
M0
100
AcDbText
 10
144.313748
 20
164.092369
 40
1.046643
  1
３
 50
270.000001
 41
0.983333
  7
STANDARD
100
AcDbText
  0
TEXT
  5
247
100
AcDbEntity
  8
M0
100
AcDbText
 10
144.313748
 20
168.278953
 40
1.046643
  1
１
 50
270.000001
 41
0.983333
  7
STANDARD
100
AcDbText
  0
LINE
  5
248
100
AcDbEntity
  8
M0
  6
CONTINUOUS
370
13
100
AcDbLine
 10
141.592603
 20
151.996627
 11
141.909677
 21
151.679553
  0
LINE
  5
249
100
AcDbEntity
  8
M0
  6
CONTINUOUS
370
13
100
AcDbLine
 10
140.852515
 20
149.903341
 11
141.585165
 21
149.170691
  0
LINE
  5
24A
100
AcDbEntity
  8
M0
  6
CONTINUOUS
370
13
100
AcDbLine
 10
141.14855
 20
154.089912
 11
141.8812
 21
153.357262
  0
LINE
  5
24B
100
AcDbEntity
  8
M0
  6
CONTINUOUS
370
13
100
AcDbLine
 10
141.000532
 20
149.903341
 11
141.733182
 21
149.170691
  0
LINE
  5
24C
100
AcDbEntity
  8
M0
  6
CONTINUOUS
370
13
100
AcDbLine
 10
141.740621
 20
151.996627
 11
141.909677
 21
151.82757
  0
LINE
  5
24D
100
AcDbEntity
  8
M0
  6
CONTINUOUS
370
13
100
AcDbLine
 10
141.740621
 20
149.903341
 11
141.909677
 21
149.734285
  0
LINE
  5
24E
100
AcDbEntity
  8
M0
  6
CONTINUOUS
370
13
100
AcDbLine
 10
140.549041
 20
153.801315
 11
140.993094
 21
153.357262
  0
LINE
  5
24F
100
AcDbEntity
  8
M0
  6
CONTINUOUS
370
13
100
AcDbLine
 10
140.549041
 20
153.653297
 11
140.845077
 21
153.357262
  0
LINE
  5
250
100
AcDbEntity
  8
M0
  6
CONTINUOUS
370
13
100
AcDbLine
 10
140.549041
 20
149.466727
 11
140.845077
 21
149.170691
  0
LINE
  5
251
100
AcDbEntity
  8
M0
  6
CONTINUOUS
370
13
100
AcDbLine
 10
141.000532
 20
154.089912
 11
141.733182
 21
153.357262
  0
LINE
  5
252
100
AcDbEntity
  8
M0
  6
CONTINUOUS
370
13
100
AcDbLine
 10
141.592603
 20
149.903341
 11
141.909677
 21
149.586267
  0
LINE
  5
253
100
AcDbEntity
  8
M0
  6
CONTINUOUS
370
13
100
AcDbLine
 10
140.549041
 20
154.089912
 11
141.909677
 21
154.089912
  0
LINE
  5
254
100
AcDbEntity
  8
M0
  6
CONTINUOUS
370
13
100
AcDbLine
 10
142.227015
 20
160.950428
 11
142.227015
 21
162.206399
  0
LINE
  5
255
100
AcDbEntity
  8
M0
  6
CONTINUOUS
370
13
100
AcDbLine
 10
140.760175
 20
164.038024
 11
141.492825
 21
163.305374
  0
LINE
  5
256
100
AcDbEntity
  8
M0
  6
CONTINUOUS
370
13
100
AcDbLine
 10
142.227015
 20
167.230284
 11
142.227015
 21
168.486255
  0
LINE
  5
257
100
AcDbEntity
  8
M0
  6
CONTINUOUS
370
13
100
AcDbLine
 10
140.343059
 20
164.299684
 11
144.110972
 21
164.299684
  0
LINE
  5
258
100
AcDbEntity
  8
M0
  6
CONTINUOUS
370
13
100
AcDbLine
 10
141.909677
 20
149.170691
 11
141.909677
 21
149.903341
  0
LINE
  5
259
100
AcDbEntity
  8
M0
  6
CONTINUOUS
370
13
100
AcDbLine
 10
141.909677
 20
151.263977
 11
141.909677
 21
151.996627
  0
LINE
  5
25A
100
AcDbEntity
  8
M0
  6
CONTINUOUS
370
13
100
AcDbLine
 10
140.287381
 20
152.258287
 11
144.055294
 21
152.258287
  0
LINE
  5
25B
100
AcDbEntity
  8
M0
  6
CONTINUOUS
370
13
100
AcDbLine
 10
140.343059
 20
165.136998
 11
144.110972
 21
165.136998
  0
LINE
  5
25C
100
AcDbEntity
  8
M0
  6
CONTINUOUS
370
13
100
AcDbLine
 10
140.908193
 20
164.038024
 11
141.640843
 21
163.305374
  0
LINE
  5
25D
100
AcDbEntity
  8
M0
  6
CONTINUOUS
370
13
100
AcDbLine
 10
140.549041
 20
151.263977
 11
140.549041
 21
151.996627
  0
LINE
  5
25E
100
AcDbEntity
  8
M0
  6
CONTINUOUS
370
13
100
AcDbLine
 10
137.984767
 20
157.284858
 11
137.984767
 21
148.071717
  0
LINE
  5
25F
100
AcDbEntity
  8
M0
  6
CONTINUOUS
370
13
100
AcDbLine
 10
140.287381
 20
150.165002
 11
144.055294
 21
150.165002
  0
LINE
  5
260
100
AcDbEntity
  8
M0
  6
CONTINUOUS
370
13
100
AcDbLine
 10
140.55648
 20
154.089912
 11
141.289129
 21
153.357262
  0
LINE
  5
261
100
AcDbEntity
  8
M0
  6
CONTINUOUS
370
13
100
AcDbLine
 10
140.549041
 20
149.318709
 11
140.697059
 21
149.170691
  0
LINE
  5
262
100
AcDbEntity
  8
M0
  6
CONTINUOUS
370
13
100
AcDbLine
 10
141.000532
 20
151.996627
 11
141.733182
 21
151.263977
  0
LINE
  5
263
100
AcDbEntity
  8
M0
  6
CONTINUOUS
370
13
100
AcDbLine
 10
141.14855
 20
151.996627
 11
141.8812
 21
151.263977
  0
LINE
  5
264
100
AcDbEntity
  8
M0
  6
CONTINUOUS
370
13
100
AcDbLine
 10
141.296568
 20
154.089912
 11
141.909677
 21
153.476803
  0
LINE
  5
265
100
AcDbEntity
  8
M0
  6
CONTINUOUS
370
13
100
AcDbLine
 10
140.549041
 20
153.50528
 11
140.697059
 21
153.357262
  0
LINE
  5
266
100
AcDbEntity
  8
M0
  6
CONTINUOUS
370
13
100
AcDbLine
 10
141.909677
 20
153.357262
 11
141.909677
 21
154.089912
  0
LINE
  5
267
100
AcDbEntity
  8
M0
  6
CONTINUOUS
370
13
100
AcDbLine
 10
141.888638
 20
154.089912
 11
141.909677
 21
154.068873
  0
LINE
  5
268
100
AcDbEntity
  8
M0
  6
CONTINUOUS
370
13
100
AcDbLine
 10
142.227015
 20
165.136998
 11
142.227015
 21
166.39297
  0
LINE
  5
269
100
AcDbEntity
  8
M0
  6
CONTINUOUS
370
13
100
AcDbLine
 10
140.55648
 20
151.996627
 11
141.289129
 21
151.263977
  0
LINE
  5
26A
100
AcDbEntity
  8
M0
  6
CONTINUOUS
370
13
100
AcDbLine
 10
141.888638
 20
151.996627
 11
141.909677
 21
151.975588
  0
LINE
  5
26B
100
AcDbEntity
  8
M0
  6
CONTINUOUS
370
13
100
AcDbLine
 10
140.549041
 20
153.357262
 11
140.549041
 21
154.089912
  0
LINE
  5
26C
100
AcDbEntity
  8
M0
  6
CONTINUOUS
370
13
100
AcDbLine
 10
141.740621
 20
154.089912
 11
141.909677
 21
153.920856
  0
LINE
  5
26D
100
AcDbEntity
  8
M0
  6
CONTINUOUS
370
13
100
AcDbLine
 10
140.604719
 20
168.084015
 11
141.19679
 21
167.491944
  0
LINE
  5
26E
100
AcDbEntity
  8
M0
  6
CONTINUOUS
370
13
100
AcDbLine
 10
140.604719
 20
167.935997
 11
141.048772
 21
167.491944
  0
LINE
  5
26F
100
AcDbEntity
  8
M0
  6
CONTINUOUS
370
13
100
AcDbLine
 10
140.604719
 20
168.224594
 11
141.965355
 21
168.224594
  0
LINE
  5
270
100
AcDbEntity
  8
M0
  6
CONTINUOUS
370
13
100
AcDbLine
 10
140.612157
 20
168.224594
 11
141.344807
 21
167.491944
  0
LINE
  5
271
100
AcDbEntity
  8
M0
  6
CONTINUOUS
370
13
100
AcDbLine
 10
140.604719
 20
167.491944
 11
141.965355
 21
167.491944
  0
LINE
  5
272
100
AcDbEntity
  8
M0
  6
CONTINUOUS
370
13
100
AcDbLine
 10
141.965355
 20
167.491944
 11
141.965355
 21
168.224594
  0
LINE
  5
273
100
AcDbEntity
  8
M0
  6
CONTINUOUS
370
13
100
AcDbLine
 10
141.05621
 20
168.224594
 11
141.78886
 21
167.491944
  0
LINE
  5
274
100
AcDbEntity
  8
M0
  6
CONTINUOUS
370
13
100
AcDbLine
 10
141.944316
 20
168.224594
 11
141.965355
 21
168.203556
  0
LINE
  5
275
100
AcDbEntity
  8
M0
  6
CONTINUOUS
370
13
100
AcDbLine
 10
141.204228
 20
168.224594
 11
141.936878
 21
167.491944
  0
LINE
  5
276
100
AcDbEntity
  8
M0
  6
CONTINUOUS
370
13
100
AcDbLine
 10
140.604719
 20
167.491944
 11
140.604719
 21
168.224594
  0
LINE
  5
277
100
AcDbEntity
  8
M0
  6
CONTINUOUS
370
13
100
AcDbLine
 10
140.604719
 20
167.78798
 11
140.900754
 21
167.491944
  0
LINE
  5
278
100
AcDbEntity
  8
M0
  6
CONTINUOUS
370
13
100
AcDbLine
 10
140.908193
 20
168.224594
 11
141.640843
 21
167.491944
  0
LINE
  5
279
100
AcDbEntity
  8
M0
  6
CONTINUOUS
370
13
100
AcDbLine
 10
141.05621
 20
161.944738
 11
141.78886
 21
161.212089
  0
LINE
  5
27A
100
AcDbEntity
  8
M0
  6
CONTINUOUS
370
13
100
AcDbLine
 10
141.944316
 20
161.944738
 11
141.965355
 21
161.9237
  0
LINE
  5
27B
100
AcDbEntity
  8
M0
  6
CONTINUOUS
370
13
100
AcDbLine
 10
141.204228
 20
161.944738
 11
141.936878
 21
161.212089
  0
LINE
  5
27C
100
AcDbEntity
  8
M0
  6
CONTINUOUS
370
13
100
AcDbLine
 10
140.604719
 20
161.212089
 11
140.604719
 21
161.944738
  0
LINE
  5
27D
100
AcDbEntity
  8
M0
  6
CONTINUOUS
370
13
100
AcDbLine
 10
140.604719
 20
161.944738
 11
141.965355
 21
161.944738
  0
LINE
  5
27E
100
AcDbEntity
  8
M0
  6
CONTINUOUS
370
13
100
AcDbLine
 10
140.908193
 20
161.944738
 11
141.640843
 21
161.212089
  0
LINE
  5
27F
100
AcDbEntity
  8
M0
  6
CONTINUOUS
370
13
100
AcDbLine
 10
141.648281
 20
161.944738
 11
141.965355
 21
161.627665
  0
LINE
  5
280
100
AcDbEntity
  8
M0
  6
CONTINUOUS
370
13
100
AcDbLine
 10
140.604719
 20
161.360106
 11
140.752737
 21
161.212089
  0
LINE
  5
281
100
AcDbEntity
  8
M0
  6
CONTINUOUS
370
13
100
AcDbLine
 10
141.796298
 20
168.224594
 11
141.965355
 21
168.055538
  0
LINE
  5
282
100
AcDbEntity
  8
M0
  6
CONTINUOUS
370
13
100
AcDbLine
 10
141.352246
 20
161.944738
 11
141.965355
 21
161.331629
  0
LINE
  5
283
100
AcDbEntity
  8
M0
  6
CONTINUOUS
370
13
100
AcDbLine
 10
141.796298
 20
161.944738
 11
141.965355
 21
161.775682
  0
LINE
  5
284
100
AcDbEntity
  8
M0
  6
CONTINUOUS
370
13
100
AcDbLine
 10
140.760175
 20
161.944738
 11
141.492825
 21
161.212089
  0
LINE
  5
285
100
AcDbEntity
  8
M0
  6
CONTINUOUS
370
13
100
AcDbLine
 10
141.500263
 20
161.944738
 11
141.965355
 21
161.479647
  0
LINE
  5
286
100
AcDbEntity
  8
M0
  6
CONTINUOUS
370
13
100
AcDbLine
 10
140.549041
 20
156.042618
 11
141.141112
 21
155.450547
  0
LINE
  5
287
100
AcDbEntity
  8
M0
  6
CONTINUOUS
370
13
100
AcDbLine
 10
141.592603
 20
156.183197
 11
141.909677
 21
155.866123
  0
LINE
  5
288
100
AcDbEntity
  8
M0
  6
CONTINUOUS
370
13
100
AcDbLine
 10
140.55648
 20
156.183197
 11
141.289129
 21
155.450547
  0
LINE
  5
289
100
AcDbEntity
  8
M0
  6
CONTINUOUS
370
13
100
AcDbLine
 10
141.740621
 20
156.183197
 11
141.909677
 21
156.014141
  0
LINE
  5
28A
100
AcDbEntity
  8
M0
  6
CONTINUOUS
370
13
100
AcDbLine
 10
141.000532
 20
156.183197
 11
141.733182
 21
155.450547
  0
LINE
  5
28B
100
AcDbEntity
  8
M0
  6
CONTINUOUS
370
13
100
AcDbLine
 10
140.852515
 20
156.183197
 11
141.585165
 21
155.450547
  0
LINE
  5
28C
100
AcDbEntity
  8
M0
  6
CONTINUOUS
370
13
100
AcDbLine
 10
141.648281
 20
164.038024
 11
141.965355
 21
163.72095
  0
LINE
  5
28D
100
AcDbEntity
  8
M0
  6
CONTINUOUS
370
13
100
AcDbLine
 10
141.296568
 20
156.183197
 11
141.909677
 21
155.570088
  0
LINE
  5
28E
100
AcDbEntity
  8
M0
  6
CONTINUOUS
370
13
100
AcDbLine
 10
140.549041
 20
155.598565
 11
140.697059
 21
155.450547
  0
TEXT
  5
28F
100
AcDbEntity
  8
M0
100
AcDbText
 10
145.653546
 20
156.566777
 40
1.046643
  1
ＯＮ
 50
270.000001
 41
0.833334
  7
STANDARD
100
AcDbText
  0
LINE
  5
290
100
AcDbEntity
  8
M0
  6
CONTINUOUS
370
13
100
AcDbLine
 10
141.444585
 20
156.183197
 11
141.909677
 21
155.718106
  0
LINE
  5
291
100
AcDbEntity
  8
M0
  6
CONTINUOUS
370
13
100
AcDbLine
 10
141.944316
 20
164.038024
 11
141.965355
 21
164.016985
  0
LINE
  5
292
100
AcDbEntity
  8
M0
  6
CONTINUOUS
370
13
100
AcDbLine
 10
140.760175
 20
168.224594
 11
141.492825
 21
167.491944
  0
LINE
  5
293
100
AcDbEntity
  8
M0
  6
CONTINUOUS
370
13
100
AcDbLine
 10
141.648281
 20
168.224594
 11
141.965355
 21
167.90752
  0
LINE
  5
294
100
AcDbEntity
  8
M0
  6
CONTINUOUS
370
13
100
AcDbLine
 10
140.549041
 20
155.450547
 11
140.549041
 21
156.183197
  0
LINE
  5
295
100
AcDbEntity
  8
M0
  6
CONTINUOUS
370
13
100
AcDbLine
 10
141.500263
 20
168.224594
 11
141.965355
 21
167.759503
  0
LINE
  5
296
100
AcDbEntity
  8
M0
  6
CONTINUOUS
370
13
100
AcDbLine
 10
141.352246
 20
168.224594
 11
141.965355
 21
167.611485
  0
LINE
  5
297
100
AcDbEntity
  8
M0
  6
CONTINUOUS
370
13
100
AcDbLine
 10
140.704497
 20
156.183197
 11
141.437147
 21
155.450547
  0
LINE
  5
298
100
AcDbEntity
  8
M0
  6
CONTINUOUS
370
13
100
AcDbLine
 10
140.549041
 20
155.8946
 11
140.993094
 21
155.450547
  0
LINE
  5
299
100
AcDbEntity
  8
M0
  6
CONTINUOUS
370
13
100
AcDbLine
 10
140.549041
 20
156.183197
 11
141.909677
 21
156.183197
  0
LINE
  5
29A
100
AcDbEntity
  8
M0
  6
CONTINUOUS
370
13
100
AcDbLine
 10
140.549041
 20
155.746583
 11
140.845077
 21
155.450547
  0
LINE
  5
29B
100
AcDbEntity
  8
M0
  6
CONTINUOUS
370
13
100
AcDbLine
 10
140.549041
 20
155.450547
 11
141.909677
 21
155.450547
  0
LINE
  5
29C
100
AcDbEntity
  8
M0
  6
CONTINUOUS
370
13
100
AcDbLine
 10
140.604719
 20
167.639962
 11
140.752737
 21
167.491944
  0
LINE
  5
29D
100
AcDbEntity
  8
M0
  6
CONTINUOUS
370
13
100
AcDbLine
 10
141.14855
 20
156.183197
 11
141.8812
 21
155.450547
  0
LINE
  5
29E
100
AcDbEntity
  8
M0
  6
CONTINUOUS
370
13
100
AcDbLine
 10
142.171337
 20
153.095601
 11
142.171337
 21
154.351573
  0
LINE
  5
29F
100
AcDbEntity
  8
M0
  6
CONTINUOUS
370
13
100
AcDbLine
 10
142.171337
 20
148.909031
 11
142.171337
 21
150.165002
  0
LINE
  5
2A0
100
AcDbEntity
  8
M0
  6
CONTINUOUS
370
13
100
AcDbLine
 10
140.549041
 20
149.903341
 11
141.909677
 21
149.903341
  0
LINE
  5
2A1
100
AcDbEntity
  8
M0
  6
CONTINUOUS
370
13
100
AcDbLine
 10
140.287381
 20
154.351573
 11
144.055294
 21
154.351573
  0
LINE
  5
2A2
100
AcDbEntity
  8
M0
  6
CONTINUOUS
370
13
100
AcDbLine
 10
140.287381
 20
153.095601
 11
140.287381
 21
154.351573
  0
LINE
  5
2A3
100
AcDbEntity
  8
M0
  6
CONTINUOUS
370
13
100
AcDbLine
 10
142.171337
 20
155.188887
 11
142.171337
 21
156.444858
  0
LINE
  5
2A4
100
AcDbEntity
  8
M0
  6
CONTINUOUS
370
13
100
AcDbLine
 10
140.604719
 20
165.546677
 11
140.752737
 21
165.398659
  0
LINE
  5
2A5
100
AcDbEntity
  8
M0
  6
CONTINUOUS
370
13
100
AcDbLine
 10
140.343059
 20
167.230284
 11
140.343059
 21
168.486255
  0
LINE
  5
2A6
100
AcDbEntity
  8
M0
  6
CONTINUOUS
370
13
100
AcDbLine
 10
144.110972
 20
167.230284
 11
144.110972
 21
168.486255
  0
LINE
  5
2A7
100
AcDbEntity
  8
M0
  6
CONTINUOUS
370
13
100
AcDbLine
 10
144.110972
 20
165.136998
 11
144.110972
 21
166.39297
  0
LINE
  5
2A8
100
AcDbEntity
  8
M0
  6
CONTINUOUS
370
13
100
AcDbLine
 10
142.171337
 20
151.002316
 11
142.171337
 21
152.258287
  0
LINE
  5
2A9
100
AcDbEntity
  8
M0
  6
CONTINUOUS
370
13
100
AcDbLine
 10
141.944316
 20
166.131309
 11
141.965355
 21
166.11027
  0
LINE
  5
2AA
100
AcDbEntity
  8
M0
  6
CONTINUOUS
370
13
100
AcDbLine
 10
144.055294
 20
155.188887
 11
144.055294
 21
156.444858
  0
LINE
  5
2AB
100
AcDbEntity
  8
M0
  6
CONTINUOUS
370
13
100
AcDbLine
 10
140.343059
 20
162.206399
 11
144.110972
 21
162.206399
  0
LINE
  5
2AC
100
AcDbEntity
  8
M0
  6
CONTINUOUS
370
13
100
AcDbLine
 10
144.110972
 20
160.950428
 11
144.110972
 21
162.206399
  0
LINE
  5
2AD
100
AcDbEntity
  8
M0
  6
CONTINUOUS
370
13
100
AcDbLine
 10
140.343059
 20
163.043713
 11
140.343059
 21
164.299684
  0
LINE
  5
2AE
100
AcDbEntity
  8
M0
  6
CONTINUOUS
370
13
100
AcDbLine
 10
141.500263
 20
166.131309
 11
141.965355
 21
165.666217
  0
LINE
  5
2AF
100
AcDbEntity
  8
M0
  6
CONTINUOUS
370
13
100
AcDbLine
 10
144.055294
 20
148.909031
 11
144.055294
 21
150.165002
  0
LINE
  5
2B0
100
AcDbEntity
  8
M0
  6
CONTINUOUS
370
13
100
AcDbLine
 10
140.287381
 20
155.188887
 11
144.055294
 21
155.188887
  0
LINE
  5
2B1
100
AcDbEntity
  8
M0
  6
CONTINUOUS
370
13
100
AcDbLine
 10
140.287381
 20
151.002316
 11
144.055294
 21
151.002316
  0
LINE
  5
2B2
100
AcDbEntity
  8
M0
  6
CONTINUOUS
370
13
100
AcDbLine
 10
140.343059
 20
165.136998
 11
140.343059
 21
166.39297
  0
LINE
  5
2B3
100
AcDbEntity
  8
M0
  6
CONTINUOUS
370
13
100
AcDbLine
 10
140.287381
 20
155.188887
 11
140.287381
 21
156.444858
  0
LINE
  5
2B4
100
AcDbEntity
  8
M0
  6
CONTINUOUS
370
13
100
AcDbLine
 10
140.343059
 20
160.950428
 11
144.110972
 21
160.950428
  0
LINE
  5
2B5
100
AcDbEntity
  8
M0
  6
CONTINUOUS
370
13
100
AcDbLine
 10
140.343059
 20
160.113114
 11
144.110972
 21
160.113114
  0
LINE
  5
2B6
100
AcDbEntity
  8
M0
  6
CONTINUOUS
370
13
100
AcDbLine
 10
144.110972
 20
163.043713
 11
144.110972
 21
164.299684
  0
LINE
  5
2B7
100
AcDbEntity
  8
M0
  6
CONTINUOUS
370
13
100
AcDbLine
 10
140.549041
 20
149.614744
 11
140.993094
 21
149.170691
  0
LINE
  5
2B8
100
AcDbEntity
  8
M0
  6
CONTINUOUS
370
13
100
AcDbLine
 10
140.55648
 20
149.903341
 11
141.289129
 21
149.170691
  0
LINE
  5
2B9
100
AcDbEntity
  8
M0
  6
CONTINUOUS
370
13
100
AcDbLine
 10
140.604719
 20
161.212089
 11
141.965355
 21
161.212089
  0
LINE
  5
2BA
100
AcDbEntity
  8
M0
  6
CONTINUOUS
370
13
100
AcDbLine
 10
140.604719
 20
166.131309
 11
141.965355
 21
166.131309
  0
LINE
  5
2BB
100
AcDbEntity
  8
M0
  6
CONTINUOUS
370
13
100
AcDbLine
 10
141.965355
 20
165.398659
 11
141.965355
 21
166.131309
  0
LINE
  5
2BC
100
AcDbEntity
  8
M0
  6
CONTINUOUS
370
13
100
AcDbLine
 10
140.704497
 20
149.903341
 11
141.437147
 21
149.170691
  0
LINE
  5
2BD
100
AcDbEntity
  8
M0
  6
CONTINUOUS
370
13
100
AcDbLine
 10
140.604719
 20
161.804159
 11
141.19679
 21
161.212089
  0
LINE
  5
2BE
100
AcDbEntity
  8
M0
  6
CONTINUOUS
370
13
100
AcDbLine
 10
140.604719
 20
161.656141
 11
141.048772
 21
161.212089
  0
LINE
  5
2BF
100
AcDbEntity
  8
M0
  6
CONTINUOUS
370
13
100
AcDbLine
 10
141.909677
 20
155.450547
 11
141.909677
 21
156.183197
  0
LINE
  5
2C0
100
AcDbEntity
  8
M0
  6
CONTINUOUS
370
13
100
AcDbLine
 10
140.612157
 20
161.944738
 11
141.344807
 21
161.212089
  0
LINE
  5
2C1
100
AcDbEntity
  8
M0
  6
CONTINUOUS
370
13
100
AcDbLine
 10
140.604719
 20
165.398659
 11
141.965355
 21
165.398659
  0
LINE
  5
2C2
100
AcDbEntity
  8
M0
  6
CONTINUOUS
370
13
100
AcDbLine
 10
141.965355
 20
161.212089
 11
141.965355
 21
161.944738
  0
LINE
  5
2C3
100
AcDbEntity
  8
M0
  6
CONTINUOUS
370
13
100
AcDbLine
 10
140.549041
 20
151.263977
 11
141.909677
 21
151.263977
  0
LINE
  5
2C4
100
AcDbEntity
  8
M0
  6
CONTINUOUS
370
13
100
AcDbLine
 10
140.549041
 20
153.357262
 11
141.909677
 21
153.357262
  0
LINE
  5
2C5
100
AcDbEntity
  8
M0
  6
CONTINUOUS
370
13
100
AcDbLine
 10
140.604719
 20
165.99073
 11
141.19679
 21
165.398659
  0
LINE
  5
2C6
100
AcDbEntity
  8
M0
  6
CONTINUOUS
370
13
100
AcDbLine
 10
140.549041
 20
149.170691
 11
141.909677
 21
149.170691
  0
LINE
  5
2C7
100
AcDbEntity
  8
M0
  6
CONTINUOUS
370
13
100
AcDbLine
 10
140.549041
 20
149.170691
 11
140.549041
 21
149.903341
  0
LINE
  5
2C8
100
AcDbEntity
  8
M0
  6
CONTINUOUS
370
13
100
AcDbLine
 10
140.604719
 20
165.842712
 11
141.048772
 21
165.398659
  0
LINE
  5
2C9
100
AcDbEntity
  8
M0
  6
CONTINUOUS
370
13
100
AcDbLine
 10
141.796298
 20
166.131309
 11
141.965355
 21
165.962253
  0
LINE
  5
2CA
100
AcDbEntity
  8
M0
  6
CONTINUOUS
370
13
100
AcDbLine
 10
140.604719
 20
165.398659
 11
140.604719
 21
166.131309
  0
LINE
  5
2CB
100
AcDbEntity
  8
M0
  6
CONTINUOUS
370
13
100
AcDbLine
 10
140.604719
 20
161.508124
 11
140.900754
 21
161.212089
  0
LINE
  5
2CC
100
AcDbEntity
  8
M0
  6
CONTINUOUS
370
13
100
AcDbLine
 10
140.612157
 20
166.131309
 11
141.344807
 21
165.398659
  0
LINE
  5
2CD
100
AcDbEntity
  8
M0
  6
CONTINUOUS
370
13
100
AcDbLine
 10
140.549041
 20
151.996627
 11
141.909677
 21
151.996627
  0
LINE
  5
2CE
100
AcDbEntity
  8
M0
  6
CONTINUOUS
370
13
100
AcDbLine
 10
141.352246
 20
164.038024
 11
141.965355
 21
163.424915
  0
LINE
  5
2CF
100
AcDbEntity
  8
M0
  6
CONTINUOUS
370
13
100
AcDbLine
 10
140.604719
 20
165.694694
 11
140.900754
 21
165.398659
  0
LINE
  5
2D0
100
AcDbEntity
  8
M0
  6
CONTINUOUS
370
13
100
AcDbLine
 10
138.040445
 20
169.323569
 11
138.040445
 21
160.113114
  0
LINE
  5
2D1
100
AcDbEntity
  8
M0
  6
CONTINUOUS
370
13
100
AcDbLine
 10
146.936907
 20
169.323569
 11
146.936907
 21
160.113114
  0
LINE
  5
2D2
100
AcDbEntity
  8
M0
  6
CONTINUOUS
370
13
100
AcDbLine
 10
144.055294
 20
156.444858
 11
140.287381
 21
156.444858
  0
LINE
  5
2D3
100
AcDbEntity
  8
M0
  6
CONTINUOUS
370
13
100
AcDbLine
 10
146.881229
 20
157.284858
 11
137.984767
 21
157.284858
  0
LINE
  5
2D4
100
AcDbEntity
  8
M0
  6
CONTINUOUS
370
13
100
AcDbLine
 10
138.040445
 20
160.113114
 11
146.936907
 21
160.113114
  0
CIRCLE
  5
2D5
100
AcDbEntity
  8
M0
  6
CONTINUOUS
370
13
100
AcDbCircle
 10
162.626532
 20
168.446777
 40
1.166529
  0
TEXT
  5
2D6
100
AcDbEntity
  8
M0
100
AcDbText
 10
116.470799
 20
282.364768
 40
3.666125
  1
給湯流量調整弁
 50
270.000001
 41
0.694444
  7
STANDARD
100
AcDbText
  0
TEXT
  5
2D7
100
AcDbEntity
  8
M0
100
AcDbText
 10
111.338223
 20
282.364768
 40
3.666125
  1
（２系）
 50
270.000001
 41
0.694444
  7
STANDARD
100
AcDbText
  0
TEXT
  5
2D8
100
AcDbEntity
  8
M0
100
AcDbText
 10
102.652226
 20
282.779868
 40
3.666125
  1
給湯流量調整弁
 50
270.000001
 41
0.694444
  7
STANDARD
100
AcDbText
  0
TEXT
  5
2D9
100
AcDbEntity
  8
M0
100
AcDbText
 10
97.51965
 20
282.779868
 40
3.666125
  1
（１系）
 50
270.000001
 41
0.694444
  7
STANDARD
100
AcDbText
  0
LINE
  5
2DA
100
AcDbEntity
  8
M0
  6
CONTINUOUS
370
13
100
AcDbLine
 10
329.966933
 20
138.716364
 11
327.313786
 21
138.716364
  0
LINE
  5
2DB
100
AcDbEntity
  8
M0
  6
CONTINUOUS
370
13
100
AcDbLine
 10
324.21845
 20
141.306258
 11
324.21845
 21
122.862176
  0
LINE
  5
2DC
100
AcDbEntity
  8
M0
  6
CONTINUOUS
370
13
100
AcDbLine
 10
333.062271
 20
122.862176
 11
324.21845
 21
122.862176
  0
LINE
  5
2DD
100
AcDbEntity
  8
M0
  6
CONTINUOUS
370
13
100
AcDbLine
 10
333.062271
 20
122.862176
 11
333.062271
 21
141.306258
  0
LINE
  5
2DE
100
AcDbEntity
  8
M0
  6
CONTINUOUS
370
13
100
AcDbLine
 10
327.313785
 20
129.87398
 11
329.966934
 21
129.87398
  0
LINE
  5
2DF
100
AcDbEntity
  8
M0
  6
CONTINUOUS
370
13
100
AcDbLine
 10
324.21845
 20
141.306258
 11
333.062271
 21
141.306258
  0
LINE
  5
2E0
100
AcDbEntity
  8
M0
  6
CONTINUOUS
370
13
100
AcDbLine
 10
327.313785
 20
125.45207
 11
329.966934
 21
125.45207
  0
LINE
  5
2E1
100
AcDbEntity
  8
M0
  6
CONTINUOUS
370
13
100
AcDbLine
 10
327.313785
 20
134.295891
 11
329.966934
 21
134.295891
  0
LINE
  5
2E2
100
AcDbEntity
  8
M0
  6
DASHDOT
370
13
100
AcDbLine
 10
346.870872
 20
147.197664
 11
318.153415
 21
147.197664
  0
LINE
  5
2E3
100
AcDbEntity
  8
M0
  6
DASHDOT
370
13
100
AcDbLine
 10
346.870872
 20
108.185571
 11
318.153415
 21
108.185571
  0
LINE
  5
2E4
100
AcDbEntity
  8
M0
  6
DASHDOT
370
13
100
AcDbLine
 10
318.153415
 20
147.197664
 11
318.153415
 21
108.185571
  0
LINE
  5
2E5
100
AcDbEntity
  8
M0
  6
DASHDOT
370
13
100
AcDbLine
 10
300.704897
 20
102.985444
 11
273.720308
 21
102.985444
  0
LINE
  5
2E6
100
AcDbEntity
  8
M0
  6
DASHED
370
13
100
AcDbLine
 10
263.219458
 20
93.672524
 11
279.284292
 21
93.672524
  0
LINE
  5
2E7
100
AcDbEntity
  8
M0
  6
CONTINUOUS
370
13
100
AcDbLine
 10
222.605352
 20
105.489778
 11
222.605352
 21
104.424247
  0
LINE
  5
2E8
100
AcDbEntity
  8
M0
  6
CONTINUOUS
370
13
100
AcDbLine
 10
216.920269
 20
109.911689
 11
232.48206
 21
109.911689
  0
LINE
  5
2E9
100
AcDbEntity
  8
M0
  6
CONTINUOUS
370
13
100
AcDbLine
 10
222.622248
 20
105.489778
 11
232.48206
 21
105.489778
  0
LINE
  5
2EA
100
AcDbEntity
  8
M0
  6
CONTINUOUS
370
13
100
AcDbLine
 10
216.920269
 20
109.911689
 11
216.920269
 21
105.491215
  0
LINE
  5
2EB
100
AcDbEntity
  8
M0
  6
CONTINUOUS
370
13
100
AcDbLine
 10
222.605352
 20
103.444247
 11
222.605352
 21
101.632961
  0
LINE
  5
2EC
100
AcDbEntity
  8
M0
  6
CONTINUOUS
370
13
100
AcDbLine
 10
222.622248
 20
100.653252
 11
222.622248
 21
97.966016
  0
LINE
  5
2ED
100
AcDbEntity
  8
M0
  6
DASHED
370
13
100
AcDbLine
 10
238.672736
 20
105.489778
 11
287.324594
 21
105.489778
  0
LINE
  5
2EE
100
AcDbEntity
  8
M0
  6
DASHED
370
13
100
AcDbLine
 10
238.672736
 20
109.913125
 11
283.520675
 21
109.913125
  0
LINE
  5
2EF
100
AcDbEntity
  8
M0
  6
CONTINUOUS
370
13
100
AcDbLine
 10
231.155488
 20
112.501583
 11
239.999309
 21
112.501583
  0
LINE
  5
2F0
100
AcDbEntity
  8
M0
  6
CONTINUOUS
370
13
100
AcDbLine
 10
234.250823
 20
101.069304
 11
236.903971
 21
101.069304
  0
LINE
  5
2F1
100
AcDbEntity
  8
M0
  6
CONTINUOUS
370
13
100
AcDbLine
 10
234.250823
 20
96.647394
 11
236.903971
 21
96.647394
  0
LINE
  5
2F2
100
AcDbEntity
  8
M0
  6
DASHED
370
13
100
AcDbLine
 10
263.219458
 20
89.566465
 11
279.284292
 21
89.566465
  0
LINE
  5
2F3
100
AcDbEntity
  8
M0
  6
CONTINUOUS
370
13
100
AcDbLine
 10
234.250823
 20
105.491215
 11
236.903971
 21
105.491215
  0
LINE
  5
2F4
100
AcDbEntity
  8
M0
  6
CONTINUOUS
370
13
100
AcDbLine
 10
231.155488
 20
112.501583
 11
231.155488
 21
94.0575
  0
LINE
  5
2F5
100
AcDbEntity
  8
M0
  6
CONTINUOUS
370
13
100
AcDbLine
 10
239.999309
 20
94.0575
 11
231.155488
 21
94.0575
  0
LINE
  5
2F6
100
AcDbEntity
  8
M0
  6
CONTINUOUS
370
13
100
AcDbLine
 10
239.999309
 20
94.0575
 11
239.999309
 21
112.501583
  0
LINE
  5
2F7
100
AcDbEntity
  8
M0
  6
CONTINUOUS
370
13
100
AcDbLine
 10
236.90397
 20
109.911689
 11
234.250824
 21
109.911689
  0
LINE
  5
2F8
100
AcDbEntity
  8
M0
  6
DASHED
370
13
100
AcDbLine
 10
238.672736
 20
96.645957
 11
247.451564
 21
96.645957
  0
LINE
  5
2F9
100
AcDbEntity
  8
M0
  6
DASHED
370
13
100
AcDbLine
 10
247.451564
 20
96.645957
 11
247.451564
 21
89.566476
  0
LINE
  5
2FA
100
AcDbEntity
  8
M0
  6
DASHED
370
13
100
AcDbLine
 10
238.672736
 20
101.069304
 11
251.255483
 21
101.069304
  0
LINE
  5
2FB
100
AcDbEntity
  8
M0
  6
CONTINUOUS
370
13
100
AcDbLine
 10
213.027995
 20
101.067868
 11
232.48206
 21
101.067868
  0
LINE
  5
2FC
100
AcDbEntity
  8
M0
  6
CONTINUOUS
370
13
100
AcDbLine
 10
208.606085
 20
96.645957
 11
232.48206
 21
96.645957
  0
LINE
  5
2FD
100
AcDbEntity
  8
M0
  6
DASHED
370
13
100
AcDbLine
 10
258.796111
 20
89.566465
 11
262.239458
 21
89.566465
  0
CIRCLE
  5
2FE
100
AcDbEntity
  8
M0
  6
CONTINUOUS
370
13
100
AcDbCircle
 10
326.429404
 20
134.294454
 40
0.884382
  0
CIRCLE
  5
2FF
100
AcDbEntity
  8
M0
  6
CONTINUOUS
370
13
100
AcDbCircle
 10
330.851316
 20
125.45207
 40
0.884382
  0
CIRCLE
  5
300
100
AcDbEntity
  8
M0
  6
CONTINUOUS
370
13
100
AcDbCircle
 10
330.851316
 20
138.717801
 40
0.884382
  0
CIRCLE
  5
301
100
AcDbEntity
  8
M0
  6
CONTINUOUS
370
13
100
AcDbCircle
 10
326.429404
 20
129.872543
 40
0.884382
  0
CIRCLE
  5
302
100
AcDbEntity
  8
M0
  6
CONTINUOUS
370
13
100
AcDbCircle
 10
326.429404
 20
138.716364
 40
0.884382
  0
CIRCLE
  5
303
100
AcDbEntity
  8
M0
  6
CONTINUOUS
370
13
100
AcDbCircle
 10
330.851316
 20
129.87398
 40
0.884382
  0
CIRCLE
  5
304
100
AcDbEntity
  8
M0
  6
CONTINUOUS
370
13
100
AcDbCircle
 10
326.429404
 20
125.450633
 40
0.884382
  0
CIRCLE
  5
305
100
AcDbEntity
  8
M0
  6
CONTINUOUS
370
13
100
AcDbCircle
 10
330.851316
 20
134.295891
 40
0.884382
  0
CIRCLE
  5
306
100
AcDbEntity
  8
M0
  6
CONTINUOUS
370
13
100
AcDbCircle
 10
233.366442
 20
105.489778
 40
0.884382
  0
CIRCLE
  5
307
100
AcDbEntity
  8
M0
  6
CONTINUOUS
370
13
100
AcDbCircle
 10
237.788354
 20
96.647394
 40
0.884382
  0
CIRCLE
  5
308
100
AcDbEntity
  8
M0
  6
CONTINUOUS
370
13
100
AcDbCircle
 10
237.788354
 20
101.069304
 40
0.884382
  0
CIRCLE
  5
309
100
AcDbEntity
  8
M0
  6
CONTINUOUS
370
13
100
AcDbCircle
 10
233.366442
 20
109.911689
 40
0.884382
  0
CIRCLE
  5
30A
100
AcDbEntity
  8
M0
  6
CONTINUOUS
370
13
100
AcDbCircle
 10
233.366442
 20
101.067868
 40
0.884382
  0
CIRCLE
  5
30B
100
AcDbEntity
  8
M0
  6
CONTINUOUS
370
13
100
AcDbCircle
 10
237.788354
 20
105.491215
 40
0.884382
  0
CIRCLE
  5
30C
100
AcDbEntity
  8
M0
  6
CONTINUOUS
370
13
100
AcDbCircle
 10
233.366442
 20
96.645957
 40
0.884382
  0
CIRCLE
  5
30D
100
AcDbEntity
  8
M0
  6
CONTINUOUS
370
13
100
AcDbCircle
 10
237.788354
 20
109.913125
 40
0.884382
  0
ARC
  5
30E
100
AcDbEntity
  8
M0
  6
CONTINUOUS
370
13
100
AcDbCircle
 10
222.605352
 20
101.142961
 40
0.49
100
AcDbArc
 50
90.0
 51
270.0
  0
ARC
  5
30F
100
AcDbEntity
  8
M0
  6
CONTINUOUS
370
13
100
AcDbCircle
 10
222.605352
 20
103.934247
 40
0.49
100
AcDbArc
 50
90.0
 51
270.0
  0
ARC
  5
310
100
AcDbEntity
  8
M0
  6
DASHED
370
13
100
AcDbCircle
 10
258.306111
 20
89.566476
 40
0.49
100
AcDbArc
 50
0.0
 51
180.0
  0
ARC
  5
311
100
AcDbEntity
  8
M0
  6
DASHED
370
13
100
AcDbCircle
 10
262.729458
 20
93.672524
 40
0.49
100
AcDbArc
 50
0.0
 51
180.0
  0
ARC
  5
312
100
AcDbEntity
  8
M0
  6
DASHED
370
13
100
AcDbCircle
 10
258.306111
 20
93.672536
 40
0.49
100
AcDbArc
 50
0.0
 51
180.0
  0
ARC
  5
313
100
AcDbEntity
  8
M0
  6
DASHED
370
13
100
AcDbCircle
 10
262.729458
 20
89.566465
 40
0.49
100
AcDbArc
 50
0.0
 51
180.0
  0
TEXT
  5
314
100
AcDbEntity
  8
M0
100
AcDbText
 10
321.342539
 20
125.776034
 40
2.94794
  1
黒
 41
0.833333
  7
STANDARD
100
AcDbText
  0
TEXT
  5
315
100
AcDbEntity
  8
M0
100
AcDbText
 10
323.836036
 20
118.342986
 40
3.67
  1
ヒータ電源
 41
0.694823
  7
STANDARD
100
AcDbText
  0
TEXT
  5
316
100
AcDbEntity
  8
M0
100
AcDbText
 10
323.836036
 20
113.204985
 40
3.67
  1
端子台
 41
0.694823
  7
STANDARD
100
AcDbText
  0
TEXT
  5
317
100
AcDbEntity
  8
M0
100
AcDbText
 10
321.346994
 20
130.675835
 40
2.94794
  1
白
 41
0.833333
  7
STANDARD
100
AcDbText
  0
TEXT
  5
318
100
AcDbEntity
  8
M0
100
AcDbText
 10
321.355203
 20
135.180271
 40
2.94794
  1
茶
 41
0.833333
  7
STANDARD
100
AcDbText
  0
TEXT
  5
319
100
AcDbEntity
  8
M0
100
AcDbText
 10
321.355203
 20
139.602177
 40
2.94794
  1
赤
 41
0.833333
  7
STANDARD
100
AcDbText
  0
TEXT
  5
31A
100
AcDbEntity
  8
M0
100
AcDbText
 10
324.417717
 20
101.537127
 40
3.67
  1
貯湯ユニット
 41
0.694823
  7
STANDARD
100
AcDbText
  0
TEXT
  5
31B
100
AcDbEntity
  8
M0
100
AcDbText
 10
277.670074
 20
82.645041
 40
3.67
  1
ヒータ電源
 41
0.694823
  7
STANDARD
100
AcDbText
  0
TEXT
  5
31C
100
AcDbEntity
  8
M0
100
AcDbText
 10
277.670074
 20
77.50704
 40
3.67
  1
端子台
 41
0.694823
  7
STANDARD
100
AcDbText
  0
TEXT
  5
31D
100
AcDbEntity
  8
M0
100
AcDbText
 10
228.292253
 20
110.797499
 40
2.94794
  1
赤
 41
0.833333
  7
STANDARD
100
AcDbText
  0
TEXT
  5
31E
100
AcDbEntity
  8
M0
100
AcDbText
 10
228.292253
 20
106.375594
 40
2.94794
  1
茶
 41
0.833333
  7
STANDARD
100
AcDbText
  0
TEXT
  5
31F
100
AcDbEntity
  8
M0
100
AcDbText
 10
230.804031
 20
89.032553
 40
3.67
  1
ヒータ電源
 41
0.694823
  7
STANDARD
100
AcDbText
  0
TEXT
  5
320
100
AcDbEntity
  8
M0
100
AcDbText
 10
230.804031
 20
83.894553
 40
3.67
  1
端子台
 41
0.694823
  7
STANDARD
100
AcDbText
  0
TEXT
  5
321
100
AcDbEntity
  8
M0
100
AcDbText
 10
228.287798
 20
97.643446
 40
2.94794
  1
黒
 41
0.833333
  7
STANDARD
100
AcDbText
  0
TEXT
  5
322
100
AcDbEntity
  8
M0
100
AcDbText
 10
228.292253
 20
102.543249
 40
2.94794
  1
白
 41
0.833333
  7
STANDARD
100
AcDbText
  0
LINE
  5
323
100
AcDbEntity
  8
M0
  6
DASHED
370
13
100
AcDbLine
 10
258.796111
 20
93.672524
 11
262.239458
 21
93.672524
  0
LINE
  5
324
100
AcDbEntity
  8
M0
  6
DASHED
370
13
100
AcDbLine
 10
251.255483
 20
93.672536
 11
257.816111
 21
93.672536
  0
LINE
  5
325
100
AcDbEntity
  8
M0
  6
DASHED
370
13
100
AcDbLine
 10
251.255483
 20
101.030997
 11
251.255483
 21
93.672536
  0
LINE
  5
326
100
AcDbEntity
  8
M0
  6
DASHED
370
13
100
AcDbLine
 10
247.451564
 20
89.566476
 11
257.816111
 21
89.566476
  0
LINE
  5
327
100
AcDbEntity
  8
M0
  6
CONTINUOUS
370
13
100
AcDbLine
 10
213.027995
 20
119.825939
 11
213.027995
 21
101.067868
  0
LINE
  5
328
100
AcDbEntity
  8
M0
  6
CONTINUOUS
370
13
100
AcDbLine
 10
208.606085
 20
124.24785
 11
208.606085
 21
96.645957
  0
LINE
  5
329
100
AcDbEntity
  8
M0
  6
CONTINUOUS
370
13
100
AcDbLine
 10
248.055039
 20
124.24785
 11
208.606085
 21
124.24785
  0
LINE
  5
32A
100
AcDbEntity
  8
M0
  6
CONTINUOUS
370
13
100
AcDbLine
 10
213.027995
 20
119.825939
 11
253.328225
 21
119.825939
  0
LINE
  5
32B
100
AcDbEntity
  8
M0
  6
CONTINUOUS
370
13
100
AcDbLine
 10
253.328225
 20
138.57496
 11
253.328225
 21
119.825939
  0
LINE
  5
32C
100
AcDbEntity
  8
M0
  6
CONTINUOUS
370
13
100
AcDbLine
 10
248.055039
 20
138.57496
 11
248.055039
 21
124.24785
  0
LINE
  5
32D
100
AcDbEntity
  8
M0
  6
DASHED
370
13
100
AcDbLine
 10
283.520675
 20
129.872543
 11
283.520675
 21
109.913125
  0
LINE
  5
32E
100
AcDbEntity
  8
M0
  6
DASHED
370
13
100
AcDbLine
 10
287.324594
 20
125.45207
 11
287.324594
 21
105.489778
  0
LINE
  5
32F
100
AcDbEntity
  8
M0
  6
DASHED
370
13
100
AcDbLine
 10
287.324594
 20
125.45207
 11
325.545022
 21
125.45207
  0
LINE
  5
330
100
AcDbEntity
  8
M0
  6
DASHED
370
13
100
AcDbLine
 10
283.520675
 20
129.872543
 11
325.545022
 21
129.872543
  0
LINE
  5
331
100
AcDbEntity
  8
M0
  6
CONTINUOUS
370
13
100
AcDbLine
 10
279.315877
 20
65.249841
 11
281.210984
 21
65.249841
  0
LINE
  5
332
100
AcDbEntity
  8
M0
  6
CONTINUOUS
370
13
100
AcDbLine
 10
279.315877
 20
68.408349
 11
281.210984
 21
68.408349
  0
LINE
  5
333
100
AcDbEntity
  8
M0
  6
DASHDOT
370
13
100
AcDbLine
 10
273.720308
 20
56.182721
 11
273.720308
 21
102.985444
  0
LINE
  5
334
100
AcDbEntity
  8
M0
  6
CONTINUOUS
370
13
100
AcDbLine
 10
283.421939
 20
63.400944
 11
283.421939
 21
73.415754
  0
LINE
  5
335
100
AcDbEntity
  8
M0
  6
CONTINUOUS
370
13
100
AcDbLine
 10
283.421939
 20
73.415754
 11
277.104924
 21
73.415754
  0
LINE
  5
336
100
AcDbEntity
  8
M0
  6
CONTINUOUS
370
13
100
AcDbLine
 10
277.104924
 20
73.415754
 11
277.104924
 21
63.400944
  0
LINE
  5
337
100
AcDbEntity
  8
M0
  6
CONTINUOUS
370
13
100
AcDbLine
 10
277.104924
 20
63.400944
 11
283.421939
 21
63.400944
  0
LINE
  5
338
100
AcDbEntity
  8
M0
  6
CONTINUOUS
370
13
100
AcDbLine
 10
281.210984
 20
71.56583
 11
279.315878
 21
71.56583
  0
LINE
  5
339
100
AcDbEntity
  8
M0
  6
DASHDOT
370
13
100
AcDbLine
 10
294.232776
 20
56.182721
 11
273.720308
 21
56.182721
  0
LINE
  5
69
102
{ACAD_REACTORS
330
68
102
}
330
1F
100
AcDbEntity
  8
M0
  6
DASHED
370
13
100
AcDbLine
 10
278.052475
 20
71.564804
 11
181.714858
 21
71.564804
  0
LINE
  5
65
102
{ACAD_REACTORS
330
64
102
}
330
1F
100
AcDbEntity
  8
M0
  6
DASHED
370
13
100
AcDbLine
 10
181.714859
 20
68.407323
 11
278.052475
 21
68.407323
  0
LINE
  5
4F
102
{ACAD_REACTORS
330
4E
102
}
330
1F
100
AcDbEntity
  8
M0
  6
DASHED
370
13
100
AcDbLine
 10
181.714859
 20
65.248815
 11
278.052475
 21
65.248815
  0
LINE
  5
33A
100
AcDbEntity
  8
M0
  6
CONTINUOUS
370
13
100
AcDbLine
 10
178.556349
 20
65.247789
 11
180.451455
 21
65.247789
  0
LINE
  5
33B
100
AcDbEntity
  8
M0
  6
CONTINUOUS
370
13
100
AcDbLine
 10
180.451454
 20
71.563778
 11
178.55635
 21
71.563778
  0
LINE
  5
33C
100
AcDbEntity
  8
M0
  6
CONTINUOUS
370
13
100
AcDbLine
 10
182.66241
 20
63.398891
 11
182.66241
 21
73.413702
  0
LINE
  5
33D
100
AcDbEntity
  8
M0
  6
CONTINUOUS
370
13
100
AcDbLine
 10
176.345395
 20
73.413702
 11
176.345395
 21
63.398891
  0
LINE
  5
33E
100
AcDbEntity
  8
M0
  6
CONTINUOUS
370
13
100
AcDbLine
 10
182.66241
 20
73.413702
 11
176.345395
 21
73.413702
  0
LINE
  5
33F
100
AcDbEntity
  8
M0
  6
CONTINUOUS
370
13
100
AcDbLine
 10
178.556349
 20
68.406296
 11
180.451455
 21
68.406296
  0
LINE
  5
340
100
AcDbEntity
  8
M0
  6
CONTINUOUS
370
13
100
AcDbLine
 10
176.345395
 20
63.398891
 11
182.66241
 21
63.398891
  0
LINE
  5
341
100
AcDbEntity
  8
M0
  6
DASHED
370
13
100
AcDbLine
 10
70.602431
 20
48.189893
 11
70.602431
 21
20.953696
  0
LINE
  5
342
100
AcDbEntity
  8
M0
  6
CONTINUOUS
370
13
100
AcDbLine
 10
69.158542
 20
20.231751
 11
72.046321
 21
20.231751
  0
LINE
  5
343
100
AcDbEntity
  8
M0
  6
CONTINUOUS
370
13
100
AcDbLine
 10
71.324376
 20
19.403238
 11
69.880487
 21
19.403238
  0
LINE
  5
344
100
AcDbEntity
  8
M0
  6
CONTINUOUS
370
13
100
AcDbLine
 10
70.602431
 20
48.189893
 11
74.363841
 21
40.834779
  0
LINE
  5
345
100
AcDbEntity
  8
M0
  6
CONTINUOUS
370
13
100
AcDbLine
 10
70.602431
 20
26.007308
 11
70.602431
 21
23.841474
  0
LINE
  5
346
100
AcDbEntity
  8
M0
  6
CONTINUOUS
370
13
100
AcDbLine
 10
68.436598
 20
20.953696
 11
72.768265
 21
20.953696
  0
LINE
  5
347
100
AcDbEntity
  8
M0
  6
CONTINUOUS
370
13
100
AcDbLine
 10
279.637766
 20
274.989378
 11
403.745834
 21
274.989378
  0
LINE
  5
348
100
AcDbEntity
  8
M0
  6
CONTINUOUS
370
13
100
AcDbLine
 10
279.637766
 20
274.989378
 11
279.637766
 21
195.880245
  0
LINE
  5
349
100
AcDbEntity
  8
M0
  6
CONTINUOUS
370
13
100
AcDbLine
 10
279.637766
 20
195.880245
 11
403.745834
 21
195.880245
  0
LINE
  5
34A
100
AcDbEntity
  8
M0
  6
CONTINUOUS
370
13
100
AcDbLine
 10
85.143228
 20
71.564804
 11
151.425808
 21
71.564804
  0
LINE
  5
34B
100
AcDbEntity
  8
M0
  6
CONTINUOUS
370
13
100
AcDbLine
 10
84.511526
 20
68.407323
 11
151.425809
 21
68.407323
  0
LINE
  5
34C
100
AcDbEntity
  8
M0
  6
CONTINUOUS
370
13
100
AcDbLine
 10
78.971475
 20
71.564804
 11
83.892439
 21
71.564804
  0
LINE
  5
34D
100
AcDbEntity
  8
M0
  6
CONTINUOUS
370
13
100
AcDbLine
 10
152.05751
 20
65.246763
 11
177.292947
 21
65.246763
  0
LINE
  5
34E
100
AcDbEntity
  8
M0
  6
CONTINUOUS
370
13
100
AcDbLine
 10
152.68921
 20
71.563778
 11
177.292947
 21
71.563778
  0
LINE
  5
34F
100
AcDbEntity
  8
M0
  6
CONTINUOUS
370
13
100
AcDbLine
 10
152.689211
 20
68.406296
 11
177.292947
 21
68.406296
  0
CIRCLE
  5
350
100
AcDbEntity
  8
M0
  6
CONTINUOUS
370
13
100
AcDbCircle
 10
278.684177
 20
68.407323
 40
0.631702
  0
CIRCLE
  5
351
100
AcDbEntity
  8
M0
  6
CONTINUOUS
370
13
100
AcDbCircle
 10
278.684177
 20
65.248815
 40
0.631702
  0
CIRCLE
  5
352
100
AcDbEntity
  8
M0
  6
CONTINUOUS
370
13
100
AcDbCircle
 10
281.842685
 20
65.249841
 40
0.631702
  0
CIRCLE
  5
353
100
AcDbEntity
  8
M0
  6
CONTINUOUS
370
13
100
AcDbCircle
 10
281.842685
 20
71.566856
 40
0.631702
  0
CIRCLE
  5
354
100
AcDbEntity
  8
M0
  6
CONTINUOUS
370
13
100
AcDbCircle
 10
281.842685
 20
68.408349
 40
0.631702
  0
CIRCLE
  5
355
100
AcDbEntity
  8
M0
  6
CONTINUOUS
370
13
100
AcDbCircle
 10
278.684177
 20
71.56583
 40
0.631702
  0
CIRCLE
  5
356
100
AcDbEntity
  8
M0
  6
CONTINUOUS
370
13
100
AcDbCircle
 10
181.083157
 20
68.406296
 40
0.631702
  0
CIRCLE
  5
357
100
AcDbEntity
  8
M0
  6
CONTINUOUS
370
13
100
AcDbCircle
 10
181.083157
 20
71.564804
 40
0.631702
  0
CIRCLE
  5
358
100
AcDbEntity
  8
M0
  6
CONTINUOUS
370
13
100
AcDbCircle
 10
177.924648
 20
65.246763
 40
0.631702
  0
CIRCLE
  5
359
100
AcDbEntity
  8
M0
  6
CONTINUOUS
370
13
100
AcDbCircle
 10
177.924648
 20
71.563778
 40
0.631702
  0
CIRCLE
  5
35A
100
AcDbEntity
  8
M0
  6
CONTINUOUS
370
13
100
AcDbCircle
 10
181.083157
 20
65.247789
 40
0.631702
  0
CIRCLE
  5
35B
100
AcDbEntity
  8
M0
  6
CONTINUOUS
370
13
100
AcDbCircle
 10
177.924648
 20
68.40527
 40
0.631702
  0
CIRCLE
  5
35C
100
AcDbEntity
  8
M0
  6
CONTINUOUS
370
13
100
AcDbCircle
 10
70.602431
 20
48.911837
 40
0.721945
  0
ARC
  5
35D
100
AcDbEntity
  8
M0
  6
CONTINUOUS
370
13
100
AcDbCircle
 10
84.511526
 20
71.564804
 40
0.631702
100
AcDbArc
 50
0.0
 51
180.0
  0
ARC
  5
35E
100
AcDbEntity
  8
M0
  6
CONTINUOUS
370
13
100
AcDbCircle
 10
152.05751
 20
68.406296
 40
0.631702
100
AcDbArc
 50
0.0
 51
180.0
  0
ARC
  5
35F
100
AcDbEntity
  8
M0
  6
CONTINUOUS
370
13
100
AcDbCircle
 10
152.05751
 20
71.564804
 40
0.631702
100
AcDbArc
 50
0.0
 51
180.0
  0
TEXT
  5
360
100
AcDbEntity
  8
M0
100
AcDbText
 10
276.1598
 20
51.449622
 40
2.9376
  1
ヒートポンプユニット
 41
0.694444
  7
STANDARD
100
AcDbText
  0
TEXT
  5
361
100
AcDbEntity
  8
M0
100
AcDbText
 10
283.892825
 20
68.408339
 40
2.105672
  1
白
 41
0.833333
  7
STANDARD
100
AcDbText
  0
TEXT
  5
362
100
AcDbEntity
  8
M0
100
AcDbText
 10
283.892825
 20
71.566847
 40
2.105672
  1
黒
 41
0.833333
  7
STANDARD
100
AcDbText
  0
TEXT
  5
363
100
AcDbEntity
  8
M0
100
AcDbText
 10
283.892825
 20
65.249838
 40
2.105672
  1
赤
 41
0.833333
  7
STANDARD
100
AcDbText
  0
TEXT
  5
364
100
AcDbEntity
  8
M0
100
AcDbText
 10
174.300227
 20
68.406294
 40
2.105672
  1
白
 41
0.833333
  7
STANDARD
100
AcDbText
  0
TEXT
  5
365
100
AcDbEntity
  8
M0
100
AcDbText
 10
174.300227
 20
65.247786
 40
2.105672
  1
赤
 41
0.833333
  7
STANDARD
100
AcDbText
  0
TEXT
  5
366
100
AcDbEntity
  8
M0
100
AcDbText
 10
174.300227
 20
71.564795
 40
2.105672
  1
黒
 41
0.833333
  7
STANDARD
100
AcDbText
  0
TEXT
  5
367
100
AcDbEntity
  8
M0
100
AcDbText
 10
68.317823
 20
42.904919
 40
3.13344
  1
ア
 41
0.645833
  7
STANDARD
100
AcDbText
  0
TEXT
  5
368
100
AcDbEntity
  8
M0
100
AcDbText
 10
68.317823
 20
38.648664
 40
3.13344
  1
｜
 41
0.645833
  7
STANDARD
100
AcDbText
  0
TEXT
  5
369
100
AcDbEntity
  8
M0
100
AcDbText
 10
68.317823
 20
34.392408
 40
3.13344
  1
ス
 41
0.645833
  7
STANDARD
100
AcDbText
  0
TEXT
  5
36A
100
AcDbEntity
  8
M0
100
AcDbText
 10
68.317823
 20
30.136152
 40
3.13344
  1
　
 41
0.645833
  7
STANDARD
100
AcDbText
  0
TEXT
  5
36B
100
AcDbEntity
  8
M0
100
AcDbText
 10
72.966215
 20
37.101506
 40
3.13344
  1
ア
 41
0.645833
  7
STANDARD
100
AcDbText
  0
TEXT
  5
36C
100
AcDbEntity
  8
M0
100
AcDbText
 10
72.966215
 20
32.84525
 40
3.13344
  1
｜
 41
0.645833
  7
STANDARD
100
AcDbText
  0
TEXT
  5
36D
100
AcDbEntity
  8
M0
100
AcDbText
 10
72.966215
 20
28.588994
 40
3.13344
  1
ス
 41
0.645833
  7
STANDARD
100
AcDbText
  0
TEXT
  5
36E
100
AcDbEntity
  8
M0
100
AcDbText
 10
72.966215
 20
24.332739
 40
3.13344
  1
端
 41
0.645833
  7
STANDARD
100
AcDbText
  0
TEXT
  5
36F
100
AcDbEntity
  8
M0
100
AcDbText
 10
72.966215
 20
20.076483
 40
3.13344
  1
子
 41
0.645833
  7
STANDARD
100
AcDbText
  0
TEXT
  5
370
100
AcDbEntity
  8
M0
100
AcDbText
 10
64.498073
 20
20.923111
 40
2.707292
  1
）
 50
270.000001
 41
0.713333
  7
STANDARD
100
AcDbText
  0
TEXT
  5
371
100
AcDbEntity
  8
M0
100
AcDbText
 10
64.708059
 20
42.904919
 40
3.13344
  1
　
 41
0.645833
  7
STANDARD
100
AcDbText
  0
TEXT
  5
372
100
AcDbEntity
  8
M0
100
AcDbText
 10
64.708059
 20
38.648664
 40
3.13344
  1
　
 41
0.645833
  7
STANDARD
100
AcDbText
  0
TEXT
  5
373
100
AcDbEntity
  8
M0
100
AcDbText
 10
64.708059
 20
34.392408
 40
3.13344
  1
現
 41
0.645833
  7
STANDARD
100
AcDbText
  0
TEXT
  5
374
100
AcDbEntity
  8
M0
100
AcDbText
 10
64.708059
 20
30.136152
 40
3.13344
  1
地
 41
0.645833
  7
STANDARD
100
AcDbText
  0
TEXT
  5
375
100
AcDbEntity
  8
M0
100
AcDbText
 10
64.708059
 20
25.879896
 40
3.13344
  1
工
 41
0.645833
  7
STANDARD
100
AcDbText
  0
TEXT
  5
376
100
AcDbEntity
  8
M0
100
AcDbText
 10
64.708059
 20
21.623641
 40
3.13344
  1
事
 41
0.645833
  7
STANDARD
100
AcDbText
  0
TEXT
  5
377
100
AcDbEntity
  8
M0
100
AcDbText
 10
64.708059
 20
17.367385
 40
3.13344
  1
　
 41
0.645833
  7
STANDARD
100
AcDbText
  0
TEXT
  5
378
100
AcDbEntity
  8
M0
100
AcDbText
 10
64.128337
 20
39.762528
 40
2.707292
  1
（
 50
270.000001
 41
0.713333
  7
STANDARD
100
AcDbText
  0
LINE
  5
379
100
AcDbEntity
  8
M0
  6
CONTINUOUS
370
13
100
AcDbLine
 10
280.404052
 20
268.725785
 11
314.532915
 21
268.725785
  0
TEXT
  5
37A
100
AcDbEntity
  8
M0
100
AcDbText
 10
280.870084
 20
269.032217
 40
3.06432
  1
ディップスイッチの設定
 41
0.833333
  7
STANDARD
100
AcDbText
  0
TEXT
  5
37B
100
AcDbEntity
  8
M0
100
AcDbText
 10
277.308924
 20
59.404883
 40
2.9376
  1
ヒートポンプ側端子台
 41
0.694444
  7
STANDARD
100
AcDbText
  0
TEXT
  5
37C
100
AcDbEntity
  8
M0
100
AcDbText
 10
170.099593
 20
58.804045
 40
2.9376
  1
ヒートポンプ用
 41
0.694444
  7
STANDARD
100
AcDbText
  0
TEXT
  5
37D
100
AcDbEntity
  8
M0
100
AcDbText
 10
170.099591
 20
54.691405
 40
2.9376
  1
接続端子台
 41
0.694444
  7
STANDARD
100
AcDbText
  0
LINE
  5
37E
100
AcDbEntity
  8
M0
  6
CONTINUOUS
370
13
100
AcDbLine
 10
280.404052
 20
214.20585
 11
290.018359
 21
214.20585
  0
TEXT
  5
37F
100
AcDbEntity
  8
M0
100
AcDbText
 10
280.870084
 20
214.512282
 40
3.06432
  1
ＬＥＤ
 41
0.833333
  7
STANDARD
100
AcDbText
  0
LINE
  5
380
100
AcDbEntity
  8
M0
  6
CONTINUOUS
370
13
100
AcDbLine
 10
69.313067
 20
110.084485
 11
68.431633
 21
108.321617
  0
LINE
  5
381
100
AcDbEntity
  8
M0
  6
CONTINUOUS
370
13
100
AcDbLine
 10
65.787331
 20
110.084485
 11
72.838804
 21
110.084485
  0
LINE
  5
382
100
AcDbEntity
  8
M0
  6
CONTINUOUS
370
13
100
AcDbLine
 10
71.075936
 20
110.084485
 11
70.194501
 21
108.321617
  0
LINE
  5
383
100
AcDbEntity
  8
M0
  6
CONTINUOUS
370
13
100
AcDbLine
 10
67.550199
 20
110.084485
 11
66.668765
 21
108.321617
  0
LINE
  5
384
100
AcDbEntity
  8
M0
  6
CONTINUOUS
370
13
100
AcDbLine
 10
152.05751
 20
99.169936
 11
152.05751
 21
65.247789
  0
LINE
  5
385
100
AcDbEntity
  8
M0
  6
CONTINUOUS
370
13
 62
     7
100
AcDbLine
 10
298.319453
 20
245.876772
 11
298.319453
 21
261.083975
  0
LINE
  5
386
100
AcDbEntity
  8
M0
  6
CONTINUOUS
370
13
 62
     7
100
AcDbLine
 10
285.442033
 20
252.151314
 11
285.442033
 21
249.993813
  0
LINE
  5
387
100
AcDbEntity
  8
M0
  6
CONTINUOUS
370
13
 62
     7
100
AcDbLine
 10
294.997913
 20
249.527928
 11
294.997913
 21
255.502547
  0
LINE
  5
388
100
AcDbEntity
  8
M0
  6
CONTINUOUS
370
13
 62
     7
100
AcDbLine
 10
291.678681
 20
255.502547
 11
293.67022
 21
255.502547
  0
LINE
  5
389
100
AcDbEntity
  8
M0
  6
CONTINUOUS
370
13
 62
     7
100
AcDbLine
 10
289.922997
 20
252.151314
 11
289.922997
 21
249.993813
  0
LINE
  5
38A
100
AcDbEntity
  8
M0
  6
CONTINUOUS
370
13
 62
     7
100
AcDbLine
 10
288.761265
 20
249.993813
 11
289.922997
 21
249.993813
  0
LINE
  5
38B
100
AcDbEntity
  8
M0
  6
CONTINUOUS
370
13
 62
     7
100
AcDbLine
 10
298.319453
 20
261.083975
 11
283.712522
 21
261.083975
  0
LINE
  5
38C
100
AcDbEntity
  8
M0
  6
CONTINUOUS
370
13
 62
     7
100
AcDbLine
 10
288.761265
 20
252.151314
 11
288.761265
 21
249.993813
  0
LINE
  5
38D
100
AcDbEntity
  8
M0
  6
CONTINUOUS
370
13
 62
     7
100
AcDbLine
 10
292.080498
 20
249.993813
 11
293.24223
 21
249.993813
  0
LINE
  5
38E
100
AcDbEntity
  8
M0
  6
CONTINUOUS
370
13
 62
     7
100
AcDbLine
 10
292.080498
 20
252.151314
 11
293.24223
 21
252.151314
  0
LINE
  5
38F
100
AcDbEntity
  8
M0
  6
CONTINUOUS
370
13
 62
     7
100
AcDbLine
 10
292.080498
 20
252.151314
 11
292.080498
 21
249.993813
  0
LINE
  5
390
100
AcDbEntity
  8
M0
  6
CONTINUOUS
370
13
 62
     7
100
AcDbLine
 10
293.24223
 20
252.151314
 11
293.24223
 21
249.993813
  0
LINE
  5
391
100
AcDbEntity
  8
M0
  6
CONTINUOUS
370
13
 62
     7
100
AcDbLine
 10
286.603764
 20
252.151314
 11
286.603764
 21
249.993813
  0
LINE
  5
392
100
AcDbEntity
  8
M0
  6
CONTINUOUS
370
13
 62
     7
100
AcDbLine
 10
288.761265
 20
252.151314
 11
289.922997
 21
252.151314
  0
LINE
  5
393
100
AcDbEntity
  8
M0
  6
CONTINUOUS
370
13
 62
     7
100
AcDbLine
 10
290.350988
 20
249.527928
 11
290.350988
 21
255.502547
  0
LINE
  5
394
100
AcDbEntity
  8
M0
  6
CONTINUOUS
370
13
 62
     7
100
AcDbLine
 10
283.712522
 20
245.876772
 11
298.319453
 21
245.876772
  0
LINE
  5
395
100
AcDbEntity
  8
M0
  6
CONTINUOUS
370
13
 62
     7
100
AcDbLine
 10
285.040215
 20
249.527928
 11
287.031755
 21
249.527928
  0
LINE
  5
396
100
AcDbEntity
  8
M0
  6
CONTINUOUS
370
13
 62
     7
100
AcDbLine
 10
293.67022
 20
249.527928
 11
293.67022
 21
255.502547
  0
LINE
  5
397
100
AcDbEntity
  8
M0
  6
CONTINUOUS
370
13
 62
     7
100
AcDbLine
 10
288.359448
 20
249.527928
 11
288.359448
 21
255.502547
  0
LINE
  5
398
100
AcDbEntity
  8
M0
  6
CONTINUOUS
370
13
 62
     7
100
AcDbLine
 10
294.997913
 20
252.515238
 11
296.989453
 21
252.515238
  0
LINE
  5
399
100
AcDbEntity
  8
M0
  6
CONTINUOUS
370
13
 62
     7
100
AcDbLine
 10
294.997913
 20
255.502547
 11
296.989453
 21
255.502547
  0
LINE
  5
39A
100
AcDbEntity
  8
M0
  6
CONTINUOUS
370
13
 62
     7
100
AcDbLine
 10
291.678681
 20
249.527928
 11
291.678681
 21
255.502547
  0
LINE
  5
39B
100
AcDbEntity
  8
M0
  6
CONTINUOUS
370
13
 62
     7
100
AcDbLine
 10
285.040215
 20
255.502547
 11
287.031755
 21
255.502547
  0
LINE
  5
39C
100
AcDbEntity
  8
M0
  6
CONTINUOUS
370
13
 62
     7
100
AcDbLine
 10
283.712522
 20
261.083975
 11
283.712522
 21
245.876772
  0
LINE
  5
39D
100
AcDbEntity
  8
M0
  6
CONTINUOUS
370
13
 62
     7
100
AcDbLine
 10
288.359448
 20
255.502547
 11
290.350988
 21
255.502547
  0
LINE
  5
39E
100
AcDbEntity
  8
M0
  6
CONTINUOUS
370
13
 62
     7
100
AcDbLine
 10
285.442033
 20
252.151314
 11
286.603764
 21
252.151314
  0
LINE
  5
39F
100
AcDbEntity
  8
M0
  6
CONTINUOUS
370
13
 62
     7
100
AcDbLine
 10
287.031755
 20
249.527928
 11
287.031755
 21
255.502547
  0
LINE
  5
3A0
100
AcDbEntity
  8
M0
  6
CONTINUOUS
370
13
 62
     7
100
AcDbLine
 10
296.989453
 20
249.527928
 11
296.989453
 21
255.502547
  0
LINE
  5
3A1
100
AcDbEntity
  8
M0
  6
CONTINUOUS
370
13
 62
     7
100
AcDbLine
 10
285.442033
 20
249.993813
 11
286.603764
 21
249.993813
  0
LINE
  5
3A2
100
AcDbEntity
  8
M0
  6
CONTINUOUS
370
13
 62
     7
100
AcDbLine
 10
285.040215
 20
249.527928
 11
285.040215
 21
255.502547
  0
LINE
  5
3A3
100
AcDbEntity
  8
M0
  6
CONTINUOUS
370
13
 62
     7
100
AcDbLine
 10
291.678681
 20
249.527928
 11
293.67022
 21
249.527928
  0
LINE
  5
3A4
100
AcDbEntity
  8
M0
  6
CONTINUOUS
370
13
 62
     7
100
AcDbLine
 10
294.997913
 20
249.527928
 11
296.989453
 21
249.527928
  0
LINE
  5
3A5
100
AcDbEntity
  8
M0
  6
CONTINUOUS
370
13
 62
     7
100
AcDbLine
 10
288.359448
 20
249.527928
 11
290.350988
 21
249.527928
  0
LINE
  5
3A6
100
AcDbEntity
  8
M0
  6
CONTINUOUS
370
13
 62
     7
100
AcDbLine
 10
295.399731
 20
252.151314
 11
295.399731
 21
249.993813
  0
LINE
  5
3A7
100
AcDbEntity
  8
M0
  6
CONTINUOUS
370
13
 62
     7
100
AcDbLine
 10
296.561462
 20
252.151314
 11
296.561462
 21
249.993813
  0
LINE
  5
3A8
100
AcDbEntity
  8
M0
  6
CONTINUOUS
370
13
 62
     7
100
AcDbLine
 10
295.399731
 20
249.993813
 11
296.561462
 21
249.993813
  0
LINE
  5
3A9
100
AcDbEntity
  8
M0
  6
CONTINUOUS
370
13
 62
     7
100
AcDbLine
 10
295.399731
 20
252.151314
 11
296.561462
 21
252.151314
  0
LINE
  5
3AA
100
AcDbEntity
  8
M0
  6
CONTINUOUS
370
13
 62
     7
100
AcDbLine
 10
291.678681
 20
252.515238
 11
293.67022
 21
252.515238
  0
LINE
  5
3AB
100
AcDbEntity
  8
M0
  6
CONTINUOUS
370
13
 62
     7
100
AcDbLine
 10
288.346948
 20
252.509394
 11
290.338487
 21
252.509394
  0
LINE
  5
3AC
100
AcDbEntity
  8
M0
  6
CONTINUOUS
370
13
 62
     7
100
AcDbLine
 10
285.040215
 20
252.515238
 11
287.031755
 21
252.515238
  0
TEXT
  5
3AD
100
AcDbEntity
  8
M0
 62
     7
100
AcDbText
 10
295.121818
 20
255.496703
 40
2.619344
  1
４
 41
0.645833
  7
STANDARD
100
AcDbText
  0
TEXT
  5
3AE
100
AcDbEntity
  8
M0
 62
     7
100
AcDbText
 10
285.229034
 20
255.474089
 40
2.619344
  1
１
 41
0.645833
  7
STANDARD
100
AcDbText
  0
TEXT
  5
3AF
100
AcDbEntity
  8
M0
 62
     7
100
AcDbText
 10
284.312454
 20
258.166685
 40
2.619344
  1
ＯＮ
 41
0.645833
  7
STANDARD
100
AcDbText
  0
TEXT
  5
3B0
100
AcDbEntity
  8
M0
 62
     7
100
AcDbText
 10
291.802589
 20
255.496703
 40
2.619344
  1
３
 41
0.645833
  7
STANDARD
100
AcDbText
  0
TEXT
  5
3B1
100
AcDbEntity
  8
M0
 62
     7
100
AcDbText
 10
284.090003
 20
263.065962
 40
2.910382
  1
＜ＳＷ１＞
 41
0.645833
  7
STANDARD
100
AcDbText
  0
TEXT
  5
3B2
100
AcDbEntity
  8
M0
 62
     7
100
AcDbText
 10
288.483375
 20
255.496703
 40
2.619344
  1
２
 41
0.645833
  7
STANDARD
100
AcDbText
  0
TEXT
  5
3B3
100
AcDbEntity
  8
M0
 62
     7
100
AcDbText
 10
290.104892
 20
207.752108
 40
2.910382
  1
消灯：電源ＯＦＦ
 41
0.625
  7
STANDARD
100
AcDbText
  0
TEXT
  5
3B4
100
AcDbEntity
  8
M0
 62
     7
100
AcDbText
 10
290.104892
 20
203.752093
 40
2.910382
  1
点灯：電源ＯＮ（通電中）
 41
0.625
  7
STANDARD
100
AcDbText
  0
TEXT
  5
3B5
100
AcDbEntity
  8
M0
 62
     7
100
AcDbText
 10
290.104892
 20
199.752108
 40
2.910382
  1
点滅：おしらせ表示表示中
 41
0.625
  7
STANDARD
100
AcDbText
  0
LINE
  5
3B6
100
AcDbEntity
  8
M0
  6
CONTINUOUS
370
13
 62
     7
100
AcDbLine
 10
307.696309
 20
241.489378
 11
399.675834
 21
241.489378
  0
LINE
  5
3B7
100
AcDbEntity
  8
M0
  6
CONTINUOUS
370
13
 62
     7
100
AcDbLine
 10
358.77924
 20
225.489378
 11
358.77924
 21
257.489378
  0
LINE
  5
3B8
100
AcDbEntity
  8
M0
  6
CONTINUOUS
370
13
 62
     7
100
AcDbLine
 10
307.696309
 20
249.489378
 11
399.675834
 21
249.489378
  0
LINE
  5
3B9
100
AcDbEntity
  8
M0
  6
CONTINUOUS
370
13
 62
     7
100
AcDbLine
 10
353.686072
 20
233.489378
 11
399.675834
 21
233.489378
  0
LINE
  5
3BA
100
AcDbEntity
  8
M0
  6
CONTINUOUS
370
13
 62
     7
100
AcDbLine
 10
358.77924
 20
229.489378
 11
399.675834
 21
229.489378
  0
LINE
  5
3BB
100
AcDbEntity
  8
M0
  6
CONTINUOUS
370
13
 62
     7
100
AcDbLine
 10
312.789478
 20
245.489378
 11
353.686072
 21
245.489378
  0
LINE
  5
3BC
100
AcDbEntity
  8
M0
  6
CONTINUOUS
370
13
 62
     7
100
AcDbLine
 10
377.939116
 20
239.489376
 11
385.973668
 21
239.489376
  0
LINE
  5
3BD
100
AcDbEntity
  8
M0
  6
CONTINUOUS
370
13
 62
     7
100
AcDbLine
 10
366.782791
 20
225.489378
 11
366.782791
 21
257.489378
  0
LINE
  5
3BE
100
AcDbEntity
  8
M0
  6
CONTINUOUS
370
13
 62
     7
100
AcDbLine
 10
377.939116
 20
231.489376
 11
385.973668
 21
231.489376
  0
LINE
  5
3BF
100
AcDbEntity
  8
M0
  6
CONTINUOUS
370
13
 62
     7
100
AcDbLine
 10
358.77924
 20
253.489378
 11
399.675834
 21
253.489378
  0
LINE
  5
3C0
100
AcDbEntity
  8
M0
  6
CONTINUOUS
370
13
 62
     7
100
AcDbLine
 10
307.696309
 20
225.489378
 11
399.675834
 21
225.489378
  0
LINE
  5
3C1
100
AcDbEntity
  8
M0
  6
CONTINUOUS
370
13
 62
     7
100
AcDbLine
 10
312.789478
 20
237.489378
 11
353.686072
 21
237.489378
  0
LINE
  5
3C2
100
AcDbEntity
  8
M0
  6
CONTINUOUS
370
13
 62
     7
100
AcDbLine
 10
312.789478
 20
225.489378
 11
312.789478
 21
257.489378
  0
LINE
  5
3C3
100
AcDbEntity
  8
M0
  6
CONTINUOUS
370
13
 62
     7
100
AcDbLine
 10
307.696309
 20
257.489378
 11
307.696309
 21
225.489378
  0
LINE
  5
3C4
100
AcDbEntity
  8
M0
  6
CONTINUOUS
370
13
 62
     7
100
AcDbLine
 10
307.696309
 20
233.489378
 11
353.686072
 21
233.489378
  0
LINE
  5
3C5
100
AcDbEntity
  8
M0
  6
CONTINUOUS
370
13
 62
     7
100
AcDbLine
 10
331.949354
 20
255.489376
 11
339.983905
 21
255.489376
  0
LINE
  5
3C6
100
AcDbEntity
  8
M0
  6
CONTINUOUS
370
13
 62
     7
100
AcDbLine
 10
312.789478
 20
253.489378
 11
353.686072
 21
253.489378
  0
LINE
  5
3C7
100
AcDbEntity
  8
M0
  6
CONTINUOUS
370
13
 62
     7
100
AcDbLine
 10
320.793029
 20
225.489378
 11
320.793029
 21
257.489378
  0
LINE
  5
3C8
100
AcDbEntity
  8
M0
  6
CONTINUOUS
370
13
 62
     7
100
AcDbLine
 10
399.675834
 20
257.489378
 11
399.675834
 21
225.489378
  0
LINE
  5
3C9
100
AcDbEntity
  8
M0
  6
CONTINUOUS
370
13
 62
     7
100
AcDbLine
 10
312.789478
 20
229.489378
 11
353.686072
 21
229.489378
  0
LINE
  5
3CA
100
AcDbEntity
  8
M0
  6
CONTINUOUS
370
13
 62
     7
100
AcDbLine
 10
307.696309
 20
257.489378
 11
399.675834
 21
257.489378
  0
LINE
  5
3CB
100
AcDbEntity
  8
M0
  6
CONTINUOUS
370
13
 62
     7
100
AcDbLine
 10
358.77924
 20
237.489378
 11
399.675834
 21
237.489378
  0
LINE
  5
3CC
100
AcDbEntity
  8
M0
  6
CONTINUOUS
370
13
 62
     7
100
AcDbLine
 10
358.77924
 20
245.489378
 11
399.675834
 21
245.489378
  0
LINE
  5
3CD
100
AcDbEntity
  8
M0
  6
CONTINUOUS
370
13
 62
     7
100
AcDbLine
 10
353.686072
 20
257.489378
 11
353.686072
 21
225.489378
  0
LINE
  5
3CE
100
AcDbEntity
  8
M0
  6
CONTINUOUS
370
13
 62
     7
100
AcDbLine
 10
377.939116
 20
255.489376
 11
385.973668
 21
255.489376
  0
LINE
  5
3CF
100
AcDbEntity
  8
M0
  6
CONTINUOUS
370
13
 62
     7
100
AcDbLine
 10
377.939116
 20
247.489376
 11
385.973668
 21
247.489376
  0
LINE
  5
3D0
100
AcDbEntity
  8
M0
  6
CONTINUOUS
370
13
 62
     7
100
AcDbLine
 10
331.949354
 20
247.489376
 11
339.983905
 21
247.489376
  0
LINE
  5
3D1
100
AcDbEntity
  8
M0
  6
CONTINUOUS
370
13
 62
     7
100
AcDbLine
 10
331.949354
 20
239.489376
 11
339.983905
 21
239.489376
  0
LINE
  5
3D2
100
AcDbEntity
  8
M0
  6
CONTINUOUS
370
13
 62
     7
100
AcDbLine
 10
331.949354
 20
231.489376
 11
339.983905
 21
231.489376
  0
TEXT
  5
3D3
100
AcDbEntity
  8
M0
 62
     7
100
AcDbText
 10
309.559826
 20
244.034193
 40
2.910382
  1
２
 41
0.625
  7
STANDARD
100
AcDbText
  0
TEXT
  5
3D4
100
AcDbEntity
  8
M0
 62
     7
100
AcDbText
 10
309.559826
 20
252.034193
 40
2.910382
  1
１
 41
0.625
  7
STANDARD
100
AcDbText
  0
TEXT
  5
3D5
100
AcDbEntity
  8
M0
 62
     7
100
AcDbText
 10
309.559826
 20
236.034193
 40
2.910382
  1
３
 41
0.625
  7
STANDARD
100
AcDbText
  0
TEXT
  5
3D6
100
AcDbEntity
  8
M0
 62
     7
100
AcDbText
 10
355.549587
 20
228.034193
 40
2.910382
  1
８
 41
0.625
  7
STANDARD
100
AcDbText
  0
TEXT
  5
3D7
100
AcDbEntity
  8
M0
 62
     7
100
AcDbText
 10
359.804134
 20
246.034178
 40
2.910382
  1
Ｏ　Ｎ
 41
0.625
  7
STANDARD
100
AcDbText
  0
TEXT
  5
3D8
100
AcDbEntity
  8
M0
 62
     7
100
AcDbText
 10
359.804134
 20
238.034178
 40
2.910382
  1
Ｏ　Ｎ
 41
0.625
  7
STANDARD
100
AcDbText
  0
TEXT
  5
3D9
100
AcDbEntity
  8
M0
 62
     7
100
AcDbText
 10
309.559826
 20
228.034178
 40
2.910382
  1
４
 41
0.625
  7
STANDARD
100
AcDbText
  0
TEXT
  5
3DA
100
AcDbEntity
  8
M0
 62
     7
100
AcDbText
 10
359.804134
 20
226.034193
 40
2.910382
  1
ＯＦＦ
 41
0.625
  7
STANDARD
100
AcDbText
  0
TEXT
  5
3DB
100
AcDbEntity
  8
M0
 62
     7
100
AcDbText
 10
359.804134
 20
250.034178
 40
2.910382
  1
ＯＦＦ
 41
0.625
  7
STANDARD
100
AcDbText
  0
TEXT
  5
3DC
100
AcDbEntity
  8
M0
 62
     7
100
AcDbText
 10
313.814373
 20
238.034193
 40
2.910382
  1
Ｏ　Ｎ
 41
0.625
  7
STANDARD
100
AcDbText
  0
TEXT
  5
3DD
100
AcDbEntity
  8
M0
 62
     7
100
AcDbText
 10
313.814373
 20
234.034178
 40
2.910382
  1
ＯＦＦ
 41
0.625
  7
STANDARD
100
AcDbText
  0
TEXT
  5
3DE
100
AcDbEntity
  8
M0
 62
     7
100
AcDbText
 10
355.549587
 20
236.034193
 40
2.910382
  1
７
 41
0.625
  7
STANDARD
100
AcDbText
  0
TEXT
  5
3DF
100
AcDbEntity
  8
M0
 62
     7
100
AcDbText
 10
355.549587
 20
244.034178
 40
2.910382
  1
６
 41
0.625
  7
STANDARD
100
AcDbText
  0
TEXT
  5
3E0
100
AcDbEntity
  8
M0
 62
     7
100
AcDbText
 10
355.549587
 20
252.034178
 40
2.910382
  1
５
 41
0.625
  7
STANDARD
100
AcDbText
  0
TEXT
  5
3E1
100
AcDbEntity
  8
M0
 62
     7
100
AcDbText
 10
359.804134
 20
254.034178
 40
2.910382
  1
Ｏ　Ｎ
 41
0.625
  7
STANDARD
100
AcDbText
  0
TEXT
  5
3E2
100
AcDbEntity
  8
M0
 62
     7
100
AcDbText
 10
313.814373
 20
226.034178
 40
2.910382
  1
ＯＦＦ
 41
0.625
  7
STANDARD
100
AcDbText
  0
TEXT
  5
3E3
100
AcDbEntity
  8
M0
 62
     7
100
AcDbText
 10
313.814373
 20
254.034193
 40
2.910382
  1
Ｏ　Ｎ
 41
0.625
  7
STANDARD
100
AcDbText
  0
TEXT
  5
3E4
100
AcDbEntity
  8
M0
 62
     7
100
AcDbText
 10
313.814373
 20
242.034178
 40
2.910382
  1
ＯＦＦ
 41
0.625
  7
STANDARD
100
AcDbText
  0
TEXT
  5
3E5
100
AcDbEntity
  8
M0
 62
     7
100
AcDbText
 10
313.814373
 20
250.034178
 40
2.910382
  1
ＯＦＦ
 41
0.625
  7
STANDARD
100
AcDbText
  0
TEXT
  5
3E6
100
AcDbEntity
  8
M0
 62
     7
100
AcDbText
 10
313.814373
 20
246.034193
 40
2.910382
  1
Ｏ　Ｎ
 41
0.625
  7
STANDARD
100
AcDbText
  0
TEXT
  5
3E7
100
AcDbEntity
  8
M0
 62
     7
100
AcDbText
 10
359.804134
 20
234.034193
 40
2.910382
  1
ＯＦＦ
 41
0.625
  7
STANDARD
100
AcDbText
  0
TEXT
  5
3E8
100
AcDbEntity
  8
M0
 62
     7
100
AcDbText
 10
359.804134
 20
230.034193
 40
2.910382
  1
Ｏ　Ｎ
 41
0.625
  7
STANDARD
100
AcDbText
  0
TEXT
  5
3E9
100
AcDbEntity
  8
M0
 62
     7
100
AcDbText
 10
313.814373
 20
230.034193
 40
2.910382
  1
Ｏ　Ｎ
 41
0.625
  7
STANDARD
100
AcDbText
  0
TEXT
  5
3EA
100
AcDbEntity
  8
M0
 62
     7
100
AcDbText
 10
359.804134
 20
242.034178
 40
2.910382
  1
ＯＦＦ
 41
0.625
  7
STANDARD
100
AcDbText
  0
TEXT
  5
3EB
100
AcDbEntity
  8
M0
 62
     7
100
AcDbText
 10
322.431029
 20
249.875777
 40
2.910382
  1
標準（出荷時）
 41
0.645833
  7
STANDARD
100
AcDbText
  0
TEXT
  5
3EC
100
AcDbEntity
  8
M0
 62
     7
100
AcDbText
 10
322.431029
 20
241.875777
 40
2.910382
  1
標準（出荷時）
 41
0.645833
  7
STANDARD
100
AcDbText
  0
TEXT
  5
3ED
100
AcDbEntity
  8
M0
 62
     7
100
AcDbText
 10
322.431029
 20
233.875777
 40
2.910382
  1
標準（出荷時）
 41
0.645833
  7
STANDARD
100
AcDbText
  0
TEXT
  5
3EE
100
AcDbEntity
  8
M0
 62
     7
100
AcDbText
 10
322.431029
 20
225.875777
 40
2.910382
  1
標準（出荷時）
 41
0.645833
  7
STANDARD
100
AcDbText
  0
TEXT
  5
3EF
100
AcDbEntity
  8
M0
 62
     7
100
AcDbText
 10
368.42079
 20
249.875777
 40
2.910382
  1
標準（出荷時）
 41
0.645833
  7
STANDARD
100
AcDbText
  0
TEXT
  5
3F0
100
AcDbEntity
  8
M0
 62
     7
100
AcDbText
 10
368.42079
 20
241.875777
 40
2.910382
  1
標準（出荷時）
 41
0.645833
  7
STANDARD
100
AcDbText
  0
TEXT
  5
3F1
100
AcDbEntity
  8
M0
 62
     7
100
AcDbText
 10
368.42079
 20
233.875777
 40
2.910382
  1
標準（出荷時）
 41
0.645833
  7
STANDARD
100
AcDbText
  0
TEXT
  5
3F2
100
AcDbEntity
  8
M0
 62
     7
100
AcDbText
 10
368.42079
 20
225.875777
 40
2.910382
  1
標準（出荷時）
 41
0.645833
  7
STANDARD
100
AcDbText
  0
LINE
  5
3F3
100
AcDbEntity
  8
M0
  6
CONTINUOUS
370
13
 62
     7
100
AcDbLine
 10
183.888794
 20
197.245221
 11
178.535749
 21
197.245221
  0
LINE
  5
3F4
100
AcDbEntity
  8
M0
  6
CONTINUOUS
370
13
 62
     7
100
AcDbLine
 10
178.535749
 20
197.245221
 11
178.535749
 21
173.823419
  0
LINE
  5
3F5
100
AcDbEntity
  8
M0
  6
CONTINUOUS
370
13
 62
     7
100
AcDbLine
 10
183.888794
 20
173.823419
 11
183.888794
 21
197.245221
  0
LINE
  5
3F6
100
AcDbEntity
  8
M0
  6
CONTINUOUS
370
13
 62
     7
100
AcDbLine
 10
178.535749
 20
173.823419
 11
183.888794
 21
173.823419
  0
LINE
  5
3F7
100
AcDbEntity
  8
M0
  6
DIVIDE
370
13
100
AcDbLine
 10
191.439264
 20
166.479725
 11
186.840477
 21
166.479725
  0
LINE
  5
3F8
100
AcDbEntity
  8
M0
  6
CONTINUOUS
370
13
100
AcDbLine
 10
181.372582
 20
164.286172
 11
193.738614
 21
164.286172
  0
LINE
  5
3F9
100
AcDbEntity
  8
M0
  6
CONTINUOUS
370
13
100
AcDbLine
 10
191.055952
 20
164.896202
 11
190.289502
 21
166.223732
  0
LINE
  5
3FA
100
AcDbEntity
  8
M0
  6
CONTINUOUS
370
13
100
AcDbLine
 10
189.523052
 20
164.896202
 11
188.756602
 21
166.223732
  0
LINE
  5
3FB
100
AcDbEntity
  8
M0
  6
CONTINUOUS
370
13
100
AcDbLine
 10
182.980409
 20
165.557642
 11
186.840477
 21
165.559967
  0
LINE
  5
3FC
100
AcDbEntity
  8
M0
  6
CONTINUOUS
370
13
100
AcDbLine
 10
180.565657
 20
165.093097
 11
181.372582
 21
164.286172
  0
LINE
  5
3FD
100
AcDbEntity
  8
M0
  6
CONTINUOUS
370
13
100
AcDbLine
 10
191.439177
 20
165.559967
 11
191.055952
 21
164.896202
  0
LINE
  5
3FE
100
AcDbEntity
  8
M0
  6
CONTINUOUS
370
13
100
AcDbLine
 10
186.840477
 20
165.559967
 11
187.223702
 21
166.223732
  0
LINE
  5
3FF
100
AcDbEntity
  8
M0
  6
CONTINUOUS
370
13
100
AcDbLine
 10
187.990152
 20
164.896202
 11
188.756602
 21
166.223732
  0
LINE
  5
400
100
AcDbEntity
  8
M0
  6
CONTINUOUS
370
13
100
AcDbLine
 10
193.738614
 20
164.286172
 11
193.738614
 21
165.559967
  0
LINE
  5
401
100
AcDbEntity
  8
M0
  6
CONTINUOUS
370
13
100
AcDbLine
 10
189.523052
 20
164.896202
 11
190.289502
 21
166.223732
  0
LINE
  5
402
100
AcDbEntity
  8
M0
  6
CONTINUOUS
370
13
100
AcDbLine
 10
187.990152
 20
164.896202
 11
187.223702
 21
166.223732
  0
LINE
  5
403
100
AcDbEntity
  8
M0
  6
DIVIDE
370
13
100
AcDbLine
 10
186.840477
 20
164.64021
 11
191.439264
 21
164.64021
  0
LINE
  5
404
100
AcDbEntity
  8
M0
  6
CONTINUOUS
370
13
100
AcDbLine
 10
191.439177
 20
165.559967
 11
193.738614
 21
165.559967
  0
CIRCLE
  5
405
100
AcDbEntity
  8
M0
  6
CONTINUOUS
370
13
100
AcDbCircle
 10
180.101108
 20
165.557642
 40
0.65697
  0
CIRCLE
  5
406
100
AcDbEntity
  8
M0
  6
CONTINUOUS
370
13
100
AcDbCircle
 10
182.323435
 20
165.557642
 40
0.65697
  0
ARC
  5
407
100
AcDbEntity
  8
M0
  6
DIVIDE
370
13
100
AcDbCircle
 10
186.840477
 20
165.559967
 40
0.919757
100
AcDbArc
 50
90.0
 51
270.0
  0
ARC
  5
408
100
AcDbEntity
  8
M0
  6
DIVIDE
370
13
100
AcDbCircle
 10
191.439264
 20
165.559967
 40
0.919757
100
AcDbArc
 50
270.0
 51
450.0
  0
CIRCLE
  5
409
100
AcDbEntity
  8
M0
  6
CONTINUOUS
370
13
100
AcDbCircle
 10
180.101108
 20
194.76794
 40
0.65697
  0
CIRCLE
  5
40A
100
AcDbEntity
  8
M0
  6
CONTINUOUS
370
13
100
AcDbCircle
 10
182.323435
 20
194.76794
 40
0.65697
  0
LINE
  5
40B
100
AcDbEntity
  8
M0
  6
CONTINUOUS
370
13
100
AcDbLine
 10
187.990152
 20
175.63926
 11
187.223702
 21
176.96679
  0
LINE
  5
40C
100
AcDbEntity
  8
M0
  6
CONTINUOUS
370
13
100
AcDbLine
 10
191.439177
 20
176.303025
 11
191.055952
 21
175.63926
  0
LINE
  5
40D
100
AcDbEntity
  8
M0
  6
CONTINUOUS
370
13
100
AcDbLine
 10
191.055952
 20
175.63926
 11
190.289502
 21
176.96679
  0
LINE
  5
40E
100
AcDbEntity
  8
M0
  6
CONTINUOUS
370
13
100
AcDbLine
 10
189.523052
 20
175.63926
 11
188.756602
 21
176.96679
  0
LINE
  5
40F
100
AcDbEntity
  8
M0
  6
CONTINUOUS
370
13
100
AcDbLine
 10
189.523052
 20
175.63926
 11
190.289502
 21
176.96679
  0
LINE
  5
410
100
AcDbEntity
  8
M0
  6
CONTINUOUS
370
13
100
AcDbLine
 10
187.990152
 20
175.63926
 11
188.756602
 21
176.96679
  0
LINE
  5
411
100
AcDbEntity
  8
M0
  6
CONTINUOUS
370
13
100
AcDbLine
 10
182.980409
 20
176.3007
 11
186.840477
 21
176.303025
  0
LINE
  5
412
100
AcDbEntity
  8
M0
  6
DIVIDE
370
13
100
AcDbLine
 10
191.439264
 20
177.222782
 11
186.840477
 21
177.222782
  0
LINE
  5
413
100
AcDbEntity
  8
M0
  6
CONTINUOUS
370
13
100
AcDbLine
 10
180.565657
 20
175.836155
 11
181.372582
 21
175.02923
  0
LINE
  5
414
100
AcDbEntity
  8
M0
  6
CONTINUOUS
370
13
100
AcDbLine
 10
181.372582
 20
175.02923
 11
193.738614
 21
175.02923
  0
LINE
  5
415
100
AcDbEntity
  8
M0
  6
CONTINUOUS
370
13
100
AcDbLine
 10
191.439177
 20
176.303025
 11
193.738614
 21
176.303025
  0
LINE
  5
416
100
AcDbEntity
  8
M0
  6
CONTINUOUS
370
13
100
AcDbLine
 10
186.840477
 20
176.303025
 11
187.223702
 21
176.96679
  0
LINE
  5
417
100
AcDbEntity
  8
M0
  6
DIVIDE
370
13
100
AcDbLine
 10
186.840477
 20
175.383268
 11
191.439264
 21
175.383268
  0
LINE
  5
418
100
AcDbEntity
  8
M0
  6
CONTINUOUS
370
13
100
AcDbLine
 10
193.738614
 20
175.02923
 11
193.738614
 21
176.303025
  0
CIRCLE
  5
419
100
AcDbEntity
  8
M0
  6
CONTINUOUS
370
13
100
AcDbCircle
 10
182.323435
 20
191.074492
 40
0.65697
  0
CIRCLE
  5
41A
100
AcDbEntity
  8
M0
  6
CONTINUOUS
370
13
100
AcDbCircle
 10
180.101108
 20
191.074492
 40
0.65697
  0
ARC
  5
41B
100
AcDbEntity
  8
M0
  6
DIVIDE
370
13
100
AcDbCircle
 10
191.439264
 20
176.303025
 40
0.919757
100
AcDbArc
 50
270.0
 51
450.0
  0
ARC
  5
41C
100
AcDbEntity
  8
M0
  6
DIVIDE
370
13
100
AcDbCircle
 10
186.840477
 20
176.303025
 40
0.919757
100
AcDbArc
 50
90.0
 51
270.0
  0
LINE
  5
41D
100
AcDbEntity
  8
M0
  6
CONTINUOUS
370
13
100
AcDbLine
 10
189.523052
 20
153.815858
 11
188.756602
 21
155.143389
  0
LINE
  5
41E
100
AcDbEntity
  8
M0
  6
DIVIDE
370
13
100
AcDbLine
 10
186.840477
 20
153.559866
 11
191.439264
 21
153.559866
  0
LINE
  5
41F
100
AcDbEntity
  8
M0
  6
CONTINUOUS
370
13
100
AcDbLine
 10
182.980409
 20
154.477298
 11
186.840477
 21
154.479623
  0
LINE
  5
420
100
AcDbEntity
  8
M0
  6
CONTINUOUS
370
13
100
AcDbLine
 10
187.990152
 20
153.815858
 11
187.223702
 21
155.143389
  0
LINE
  5
421
100
AcDbEntity
  8
M0
  6
CONTINUOUS
370
13
100
AcDbLine
 10
189.523052
 20
153.815858
 11
190.289502
 21
155.143389
  0
LINE
  5
422
100
AcDbEntity
  8
M0
  6
CONTINUOUS
370
13
100
AcDbLine
 10
193.738614
 20
153.205828
 11
193.738614
 21
154.479623
  0
LINE
  5
423
100
AcDbEntity
  8
M0
  6
DIVIDE
370
13
100
AcDbLine
 10
191.439264
 20
155.399381
 11
186.840477
 21
155.399381
  0
LINE
  5
424
100
AcDbEntity
  8
M0
  6
CONTINUOUS
370
13
100
AcDbLine
 10
180.565657
 20
154.012753
 11
181.372582
 21
153.205828
  0
LINE
  5
425
100
AcDbEntity
  8
M0
  6
CONTINUOUS
370
13
100
AcDbLine
 10
191.055952
 20
153.815858
 11
190.289502
 21
155.143389
  0
LINE
  5
426
100
AcDbEntity
  8
M0
  6
CONTINUOUS
370
13
100
AcDbLine
 10
187.990152
 20
153.815858
 11
188.756602
 21
155.143389
  0
LINE
  5
427
100
AcDbEntity
  8
M0
  6
CONTINUOUS
370
13
100
AcDbLine
 10
191.439177
 20
154.479623
 11
193.738614
 21
154.479623
  0
LINE
  5
428
100
AcDbEntity
  8
M0
  6
CONTINUOUS
370
13
100
AcDbLine
 10
191.439177
 20
154.479623
 11
191.055952
 21
153.815858
  0
LINE
  5
429
100
AcDbEntity
  8
M0
  6
CONTINUOUS
370
13
100
AcDbLine
 10
186.840477
 20
154.479623
 11
187.223702
 21
155.143389
  0
LINE
  5
42A
100
AcDbEntity
  8
M0
  6
CONTINUOUS
370
13
100
AcDbLine
 10
181.372582
 20
153.205828
 11
193.738614
 21
153.205828
  0
LINE
  5
42B
100
AcDbEntity
  8
M0
  6
CONTINUOUS
370
13
100
AcDbLine
 10
180.565657
 20
157.706201
 11
181.372582
 21
156.899276
  0
LINE
  5
42C
100
AcDbEntity
  8
M0
  6
CONTINUOUS
370
13
100
AcDbLine
 10
181.372582
 20
156.899276
 11
193.738614
 21
156.899276
  0
LINE
  5
42D
100
AcDbEntity
  8
M0
  6
CONTINUOUS
370
13
100
AcDbLine
 10
182.980409
 20
158.170746
 11
186.840477
 21
158.173071
  0
LINE
  5
42E
100
AcDbEntity
  8
M0
  6
CONTINUOUS
370
13
100
AcDbLine
 10
191.439177
 20
158.173071
 11
193.738614
 21
158.173071
  0
LINE
  5
42F
100
AcDbEntity
  8
M0
  6
CONTINUOUS
370
13
100
AcDbLine
 10
191.439177
 20
158.173071
 11
191.055952
 21
157.509306
  0
LINE
  5
430
100
AcDbEntity
  8
M0
  6
CONTINUOUS
370
13
100
AcDbLine
 10
191.055952
 20
157.509306
 11
190.289502
 21
158.836837
  0
LINE
  5
431
100
AcDbEntity
  8
M0
  6
CONTINUOUS
370
13
100
AcDbLine
 10
187.990152
 20
157.509306
 11
188.756602
 21
158.836837
  0
LINE
  5
432
100
AcDbEntity
  8
M0
  6
CONTINUOUS
370
13
100
AcDbLine
 10
187.990152
 20
157.509306
 11
187.223702
 21
158.836837
  0
LINE
  5
433
100
AcDbEntity
  8
M0
  6
CONTINUOUS
370
13
100
AcDbLine
 10
189.523052
 20
157.509306
 11
190.289502
 21
158.836837
  0
LINE
  5
434
100
AcDbEntity
  8
M0
  6
CONTINUOUS
370
13
100
AcDbLine
 10
189.523052
 20
157.509306
 11
188.756602
 21
158.836837
  0
LINE
  5
435
100
AcDbEntity
  8
M0
  6
DIVIDE
370
13
100
AcDbLine
 10
191.439264
 20
159.092829
 11
186.840477
 21
159.092829
  0
LINE
  5
436
100
AcDbEntity
  8
M0
  6
CONTINUOUS
370
13
100
AcDbLine
 10
186.840477
 20
158.173071
 11
187.223702
 21
158.836837
  0
LINE
  5
437
100
AcDbEntity
  8
M0
  6
DIVIDE
370
13
100
AcDbLine
 10
186.840477
 20
157.253314
 11
191.439264
 21
157.253314
  0
LINE
  5
438
100
AcDbEntity
  8
M0
  6
CONTINUOUS
370
13
100
AcDbLine
 10
193.738614
 20
156.899276
 11
193.738614
 21
158.173071
  0
CIRCLE
  5
439
100
AcDbEntity
  8
M0
  6
CONTINUOUS
370
13
100
AcDbCircle
 10
182.323435
 20
154.477298
 40
0.65697
  0
CIRCLE
  5
43A
100
AcDbEntity
  8
M0
  6
CONTINUOUS
370
13
100
AcDbCircle
 10
180.101108
 20
154.477298
 40
0.65697
  0
ARC
  5
43B
100
AcDbEntity
  8
M0
  6
DIVIDE
370
13
100
AcDbCircle
 10
191.439264
 20
154.479623
 40
0.919757
100
AcDbArc
 50
270.0
 51
450.0
  0
ARC
  5
43C
100
AcDbEntity
  8
M0
  6
DIVIDE
370
13
100
AcDbCircle
 10
186.840477
 20
154.479623
 40
0.919757
100
AcDbArc
 50
90.0
 51
270.0
  0
ARC
  5
43D
100
AcDbEntity
  8
M0
  6
DIVIDE
370
13
100
AcDbCircle
 10
191.439264
 20
158.173071
 40
0.919757
100
AcDbArc
 50
270.0
 51
450.0
  0
ARC
  5
43E
100
AcDbEntity
  8
M0
  6
DIVIDE
370
13
100
AcDbCircle
 10
186.840477
 20
158.173071
 40
0.919757
100
AcDbArc
 50
90.0
 51
270.0
  0
LINE
  5
43F
100
AcDbEntity
  8
M0
  6
DIVIDE
370
13
100
AcDbLine
 10
186.840477
 20
149.866418
 11
191.439264
 21
149.866418
  0
LINE
  5
440
100
AcDbEntity
  8
M0
  6
CONTINUOUS
370
13
100
AcDbLine
 10
180.565657
 20
150.319305
 11
181.372582
 21
149.51238
  0
LINE
  5
441
100
AcDbEntity
  8
M0
  6
CONTINUOUS
370
13
100
AcDbLine
 10
187.990152
 20
150.12241
 11
188.756602
 21
151.449941
  0
LINE
  5
442
100
AcDbEntity
  8
M0
  6
CONTINUOUS
370
13
100
AcDbLine
 10
186.840477
 20
150.786175
 11
187.223702
 21
151.449941
  0
LINE
  5
443
100
AcDbEntity
  8
M0
  6
CONTINUOUS
370
13
100
AcDbLine
 10
181.372582
 20
149.51238
 11
193.738614
 21
149.51238
  0
LINE
  5
444
100
AcDbEntity
  8
M0
  6
DIVIDE
370
13
100
AcDbLine
 10
191.439264
 20
151.705933
 11
186.840477
 21
151.705933
  0
LINE
  5
445
100
AcDbEntity
  8
M0
  6
CONTINUOUS
370
13
100
AcDbLine
 10
191.439177
 20
150.786175
 11
191.055952
 21
150.12241
  0
LINE
  5
446
100
AcDbEntity
  8
M0
  6
CONTINUOUS
370
13
100
AcDbLine
 10
191.439177
 20
150.786175
 11
193.738614
 21
150.786175
  0
LINE
  5
447
100
AcDbEntity
  8
M0
  6
CONTINUOUS
370
13
100
AcDbLine
 10
182.980409
 20
150.783851
 11
186.840477
 21
150.786175
  0
LINE
  5
448
100
AcDbEntity
  8
M0
  6
CONTINUOUS
370
13
100
AcDbLine
 10
189.523052
 20
150.12241
 11
190.289502
 21
151.449941
  0
LINE
  5
449
100
AcDbEntity
  8
M0
  6
CONTINUOUS
370
13
100
AcDbLine
 10
193.738614
 20
149.51238
 11
193.738614
 21
150.786175
  0
LINE
  5
44A
100
AcDbEntity
  8
M0
  6
CONTINUOUS
370
13
100
AcDbLine
 10
191.055952
 20
150.12241
 11
190.289502
 21
151.449941
  0
LINE
  5
44B
100
AcDbEntity
  8
M0
  6
CONTINUOUS
370
13
100
AcDbLine
 10
189.523052
 20
150.12241
 11
188.756602
 21
151.449941
  0
LINE
  5
44C
100
AcDbEntity
  8
M0
  6
CONTINUOUS
370
13
100
AcDbLine
 10
187.990152
 20
150.12241
 11
187.223702
 21
151.449941
  0
CIRCLE
  5
44D
100
AcDbEntity
  8
M0
  6
CONTINUOUS
370
13
100
AcDbCircle
 10
180.101108
 20
150.783851
 40
0.65697
  0
CIRCLE
  5
44E
100
AcDbEntity
  8
M0
  6
CONTINUOUS
370
13
100
AcDbCircle
 10
182.323435
 20
150.783851
 40
0.65697
  0
ARC
  5
44F
100
AcDbEntity
  8
M0
  6
DIVIDE
370
13
100
AcDbCircle
 10
191.439264
 20
150.786175
 40
0.919757
100
AcDbArc
 50
270.0
 51
450.0
  0
ARC
  5
450
100
AcDbEntity
  8
M0
  6
DIVIDE
370
13
100
AcDbCircle
 10
186.840477
 20
150.786175
 40
0.919757
100
AcDbArc
 50
90.0
 51
270.0
  0
LINE
  5
451
100
AcDbEntity
  8
M0
  6
CONTINUOUS
370
13
100
AcDbLine
 10
246.312127
 20
138.57496
 11
246.312127
 21
144.839333
  0
LINE
  5
452
100
AcDbEntity
  8
M0
  6
CONTINUOUS
370
13
100
AcDbLine
 10
246.312127
 20
141.707146
 11
255.332825
 21
141.707146
  0
LINE
  5
453
100
AcDbEntity
  8
M0
  6
CONTINUOUS
370
13
100
AcDbLine
 10
255.332825
 20
144.839333
 11
246.312127
 21
144.839333
  0
LINE
  5
454
100
AcDbEntity
  8
M0
  6
CONTINUOUS
370
13
100
AcDbLine
 10
246.312127
 20
138.57496
 11
255.332825
 21
138.57496
  0
LINE
  5
455
100
AcDbEntity
  8
M0
  6
CONTINUOUS
370
13
100
AcDbLine
 10
255.332825
 20
138.57496
 11
255.332825
 21
144.839333
  0
LINE
  5
456
100
AcDbEntity
  8
M0
  6
CONTINUOUS
370
13
100
AcDbLine
 10
246.18573
 20
175.007011
 11
248.717399
 21
173.545352
  0
LINE
  5
457
100
AcDbEntity
  8
M0
  6
CONTINUOUS
370
13
100
AcDbLine
 10
253.328225
 20
241.071338
 11
253.328225
 21
236.686194
  0
LINE
  5
458
100
AcDbEntity
  8
M0
  6
CONTINUOUS
370
13
100
AcDbLine
 10
246.18573
 20
177.930331
 11
248.717399
 21
176.468671
  0
LINE
  5
459
100
AcDbEntity
  8
M0
  6
CONTINUOUS
370
13
100
AcDbLine
 10
245.687726
 20
216.903354
 11
254.708423
 21
216.903354
  0
LINE
  5
45A
100
AcDbEntity
  8
M0
  6
CONTINUOUS
370
13
100
AcDbLine
 10
245.69754
 20
199.946162
 11
249.205589
 21
199.946162
  0
LINE
  5
45B
100
AcDbEntity
  8
M0
  6
CONTINUOUS
370
13
100
AcDbLine
 10
247.451564
 20
169.891203
 11
248.717399
 21
170.622032
  0
LINE
  5
45C
100
AcDbEntity
  8
M0
  6
CONTINUOUS
370
13
100
AcDbLine
 10
247.451564
 20
178.66116
 11
246.18573
 21
177.930331
  0
LINE
  5
45D
100
AcDbEntity
  8
M0
  6
CONTINUOUS
370
13
100
AcDbLine
 10
245.69754
 20
168.771375
 11
245.69754
 21
179.83922
  0
LINE
  5
56
102
{ACAD_REACTORS
330
55
102
}
330
1F
100
AcDbEntity
  8
M0
  6
CONTINUOUS
370
13
100
AcDbLine
 10
249.205589
 20
179.83922
 11
249.205589
 21
168.771375
  0
LINE
  5
45E
100
AcDbEntity
  8
M0
  6
CONTINUOUS
370
13
100
AcDbLine
 10
245.69754
 20
168.771375
 11
249.205589
 21
168.771375
  0
LINE
  5
45F
100
AcDbEntity
  8
M0
  6
CONTINUOUS
370
13
100
AcDbLine
 10
246.18573
 20
172.083692
 11
248.717399
 21
173.545352
  0
LINE
  5
460
100
AcDbEntity
  8
M0
  6
CONTINUOUS
370
13
100
AcDbLine
 10
246.18573
 20
172.083692
 11
248.717399
 21
170.622032
  0
LINE
  5
461
100
AcDbEntity
  8
M0
  6
CONTINUOUS
370
13
100
AcDbLine
 10
245.687726
 20
213.771168
 11
254.708423
 21
213.771168
  0
LINE
  5
462
100
AcDbEntity
  8
M0
  6
CONTINUOUS
370
13
100
AcDbLine
 10
245.69754
 20
179.83922
 11
249.205589
 21
179.83922
  0
LINE
  5
463
100
AcDbEntity
  8
M0
  6
CONTINUOUS
370
13
100
AcDbLine
 10
253.328225
 20
241.071338
 11
247.451564
 21
241.071338
  0
LINE
  5
464
100
AcDbEntity
  8
M0
  6
CONTINUOUS
370
13
100
AcDbLine
 10
246.18573
 20
175.007011
 11
248.717399
 21
176.468671
  0
LINE
  5
465
100
AcDbEntity
  8
M0
  6
CONTINUOUS
370
13
100
AcDbLine
 10
247.451564
 20
178.66116
 11
247.451564
 21
189.998145
  0
LINE
  5
466
100
AcDbEntity
  8
M0
  6
CONTINUOUS
370
13
100
AcDbLine
 10
246.18573
 20
195.113953
 11
248.717399
 21
196.575613
  0
LINE
  5
5A
102
{ACAD_REACTORS
330
59
102
}
330
1F
100
AcDbEntity
  8
M0
  6
CONTINUOUS
370
13
100
AcDbLine
 10
249.205589
 20
199.946162
 11
249.205589
 21
188.878317
  0
LINE
  5
467
100
AcDbEntity
  8
M0
  6
CONTINUOUS
370
13
100
AcDbLine
 10
253.328225
 20
144.839333
 11
253.328225
 21
210.638981
  0
LINE
  5
468
100
AcDbEntity
  8
M0
  6
CONTINUOUS
370
13
100
AcDbLine
 10
245.69754
 20
188.878317
 11
249.205589
 21
188.878317
  0
LINE
  5
469
100
AcDbEntity
  8
M0
  6
CONTINUOUS
370
13
100
AcDbLine
 10
253.328225
 20
216.903354
 11
253.328225
 21
226.09642
  0
LINE
  5
46A
100
AcDbEntity
  8
M0
  6
CONTINUOUS
370
13
100
AcDbLine
 10
246.18573
 20
192.190634
 11
248.717399
 21
193.652294
  0
LINE
  5
46B
100
AcDbEntity
  8
M0
  6
CONTINUOUS
370
13
100
AcDbLine
 10
246.18573
 20
195.113953
 11
248.717399
 21
193.652294
  0
LINE
  5
46C
100
AcDbEntity
  8
M0
  6
CONTINUOUS
370
13
100
AcDbLine
 10
246.18573
 20
198.037272
 11
248.717399
 21
196.575613
  0
LINE
  5
46D
100
AcDbEntity
  8
M0
  6
CONTINUOUS
370
13
100
AcDbLine
 10
254.708423
 20
210.638981
 11
245.687726
 21
210.638981
  0
LINE
  5
46E
100
AcDbEntity
  8
M0
  6
CONTINUOUS
370
13
100
AcDbLine
 10
247.451564
 20
198.768102
 11
247.451564
 21
210.638981
  0
LINE
  5
46F
100
AcDbEntity
  8
M0
  6
CONTINUOUS
370
13
100
AcDbLine
 10
247.451564
 20
144.839333
 11
247.451564
 21
169.891203
  0
LINE
  5
470
100
AcDbEntity
  8
M0
  6
CONTINUOUS
370
13
100
AcDbLine
 10
245.69754
 20
188.878317
 11
245.69754
 21
199.946162
  0
LINE
  5
471
100
AcDbEntity
  8
M0
  6
CONTINUOUS
370
13
100
AcDbLine
 10
247.451564
 20
189.998145
 11
248.717399
 21
190.728974
  0
LINE
  5
472
100
AcDbEntity
  8
M0
  6
CONTINUOUS
370
13
100
AcDbLine
 10
246.18573
 20
192.190634
 11
248.717399
 21
190.728974
  0
LINE
  5
473
100
AcDbEntity
  8
M0
  6
CONTINUOUS
370
13
100
AcDbLine
 10
247.451564
 20
198.768102
 11
246.18573
 21
198.037272
  0
LINE
  5
474
100
AcDbEntity
  8
M0
  6
CONTINUOUS
370
13
100
AcDbLine
 10
247.451564
 20
216.903354
 11
247.451564
 21
241.071338
  0
LINE
  5
475
100
AcDbEntity
  8
M0
  6
CONTINUOUS
370
13
100
AcDbLine
 10
254.708423
 20
216.903354
 11
254.708423
 21
210.638981
  0
LINE
  5
476
100
AcDbEntity
  8
M0
  6
CONTINUOUS
370
13
100
AcDbLine
 10
245.687726
 20
216.903354
 11
245.687726
 21
210.638981
  0
CIRCLE
  5
477
100
AcDbEntity
  8
M0
  6
CONTINUOUS
370
13
100
AcDbCircle
 10
253.328225
 20
235.194677
 40
1.491517
  0
CIRCLE
  5
478
100
AcDbEntity
  8
M0
  6
CONTINUOUS
370
13
100
AcDbCircle
 10
253.328225
 20
227.587938
 40
1.491517
  0
ARC
  5
5F
102
{ACAD_REACTORS
330
5E
102
}
330
1F
100
AcDbEntity
  8
M0
  6
CONTINUOUS
370
13
100
AcDbCircle
 10
251.98999
 20
231.391307
 40
6.335645
100
AcDbArc
 50
323.10769
 51
396.89231
  0
POINT
  5
479
100
AcDbEntity
  8
M0
  6
CONTINUOUS
370
13
 62
     4
100
AcDbPoint
 10
258.325635
 20
231.391307
  0
LINE
  5
47A
100
AcDbEntity
  8
M0
  6
CONTINUOUS
370
13
100
AcDbLine
 10
232.48206
 20
96.645957
 11
222.622248
 21
97.966016
  0
LINE
  5
47B
100
AcDbEntity
  8
M0
  6
CONTINUOUS
370
13
100
AcDbLine
 10
232.48206
 20
101.067868
 11
216.920269
 21
105.491215
  0
LINE
  5
47C
100
AcDbEntity
  8
M0
  6
CONTINUOUS
370
13
100
AcDbLine
 10
286.264595
 20
87.164231
 11
286.264595
 21
100.183486
  0
LINE
  5
47D
100
AcDbEntity
  8
M0
  6
CONTINUOUS
370
13
100
AcDbLine
 10
286.264595
 20
100.183486
 11
278.052475
 21
100.183486
  0
LINE
  5
47E
100
AcDbEntity
  8
M0
  6
CONTINUOUS
370
13
100
AcDbLine
 10
280.926715
 20
89.567799
 11
283.390353
 21
89.567799
  0
LINE
  5
47F
100
AcDbEntity
  8
M0
  6
CONTINUOUS
370
13
100
AcDbLine
 10
280.926715
 20
93.673858
 11
283.390353
 21
93.673858
  0
LINE
  5
480
100
AcDbEntity
  8
M0
  6
CONTINUOUS
370
13
100
AcDbLine
 10
283.390354
 20
97.778584
 11
280.926716
 21
97.778584
  0
LINE
  5
481
100
AcDbEntity
  8
M0
  6
CONTINUOUS
370
13
100
AcDbLine
 10
278.052475
 20
100.183486
 11
278.052475
 21
87.164231
  0
LINE
  5
482
100
AcDbEntity
  8
M0
  6
CONTINUOUS
370
13
100
AcDbLine
 10
278.052475
 20
87.164231
 11
286.264595
 21
87.164231
  0
CIRCLE
  5
483
100
AcDbEntity
  8
M0
  6
CONTINUOUS
370
13
100
AcDbCircle
 10
284.211565
 20
97.779918
 40
0.821212
  0
CIRCLE
  5
484
100
AcDbEntity
  8
M0
  6
CONTINUOUS
370
13
100
AcDbCircle
 10
284.211565
 20
93.673858
 40
0.821212
  0
CIRCLE
  5
485
100
AcDbEntity
  8
M0
  6
CONTINUOUS
370
13
100
AcDbCircle
 10
280.105504
 20
89.566465
 40
0.821212
  0
CIRCLE
  5
486
100
AcDbEntity
  8
M0
  6
CONTINUOUS
370
13
100
AcDbCircle
 10
284.211565
 20
89.567799
 40
0.821212
  0
CIRCLE
  5
487
100
AcDbEntity
  8
M0
  6
CONTINUOUS
370
13
100
AcDbCircle
 10
280.105504
 20
97.778584
 40
0.821212
  0
CIRCLE
  5
488
100
AcDbEntity
  8
M0
  6
CONTINUOUS
370
13
100
AcDbCircle
 10
280.105504
 20
93.672524
 40
0.821212
  0
TEXT
  5
489
100
AcDbEntity
  8
M0
100
AcDbText
 10
286.876745
 20
89.567793
 40
2.737373
  1
黒
 41
0.833333
  7
STANDARD
100
AcDbText
  0
TEXT
  5
48A
100
AcDbEntity
  8
M0
100
AcDbText
 10
286.876745
 20
93.673842
 40
2.737373
  1
白
 41
0.833333
  7
STANDARD
100
AcDbText
  0
TEXT
  5
48B
100
AcDbEntity
  8
M0
100
AcDbText
 10
286.876745
 20
97.779902
 40
2.737373
  1
赤
 41
0.833333
  7
STANDARD
100
AcDbText
  0
TEXT
  5
48C
100
AcDbEntity
  8
M0
100
AcDbText
 10
147.753598
 20
155.855067
 40
2.912533
  1
ＳＷ２
 50
270.000001
 41
0.643939
  7
STANDARD
100
AcDbText
  0
TEXT
  5
48D
100
AcDbEntity
  8
M0
100
AcDbText
 10
147.753598
 20
167.797053
 40
2.912533
  1
ＳＷ１
 50
270.000001
 41
0.643939
  7
STANDARD
100
AcDbText
  0
TEXT
  5
48E
100
AcDbEntity
  8
M0
100
AcDbText
 10
157.35582
 20
171.662921
 40
2.912533
  1
ＬＥＤ
 50
270.000001
 41
0.643939
  7
STANDARD
100
AcDbText
  0
TEXT
  5
48F
100
AcDbEntity
  8
M0
100
AcDbText
 10
31.235866
 20
180.392783
 40
3.666125
  1
給湯循環ポンプ（２系）
 41
0.694444
  7
STANDARD
100
AcDbText
  0
TEXT
  5
490
100
AcDbEntity
  8
M69
100
AcDbText
 10
398.25
 20
4.0
 40
5.0
  1
００１
 41
0.5
  7
STANDARD
100
AcDbText
  0
TEXT
  5
491
100
AcDbEntity
  8
M71
100
AcDbText
 10
319.716667
 20
27.0
 40
5.0
  1
ＮＴＳ
 41
0.633333
  7
STANDARD
100
AcDbText
  0
TEXT
  5
492
100
AcDbEntity
  8
M73
100
AcDbText
 10
341.549988
 20
10.3
 40
5.5
  1
３ＹＡＡ
 41
0.454545
  7
STANDARD
100
AcDbText
  0
TEXT
  5
493
100
AcDbEntity
  8
M73
100
AcDbText
 10
354.558346
 20
10.0
 40
8.0
  1
ＢＢ００３７５６４
 41
0.447917
  7
STANDARD
100
AcDbText
  0
TEXT
  5
494
100
AcDbEntity
  8
M73
100
AcDbText
 10
72.558333
 20
286.799988
 40
8.0
  1
ＢＢ００３７５６４
 50
180.000005
 41
0.552083
  7
STANDARD
100
AcDbText
  0
CIRCLE
  5
495
100
AcDbEntity
  8
M74
  6
CONTINUOUS
370
25
100
AcDbCircle
 10
402.5
 20
17.5
 40
7.5
  0
TEXT
  5
496
100
AcDbEntity
  8
M74
100
AcDbText
 10
397.708333
 20
19.6
 40
3.0
  1
ＲＥＧＤ
 41
0.694444
  7
STANDARD
100
AcDbText
  0
TEXT
  5
497
100
AcDbEntity
  8
M74
100
AcDbText
 10
397.708333
 20
15.5
 40
3.0
  1
２０１３
 41
0.694444
  7
STANDARD
100
AcDbText
  0
TEXT
  5
498
100
AcDbEntity
  8
M74
100
AcDbText
 10
397.708333
 20
12.8
 40
3.0
  1
０５１６
 41
0.694444
  7
STANDARD
100
AcDbText
  0
TEXT
  5
499
100
AcDbEntity
  8
M75
100
AcDbText
 10
249.133333
 20
26.5
 40
4.0
  1
Ｍ．Ｏｓｏｄｏ
 41
0.333333
  7
STANDARD
100
AcDbText
  0
TEXT
  5
49A
100
AcDbEntity
  8
M75
100
AcDbText
 10
275.666667
 20
26.5
 40
3.5
  1
２０１３－０５－１５
 41
0.47619
  7
STANDARD
100
AcDbText
  0
TEXT
  5
49B
100
AcDbEntity
  8
M75
100
AcDbText
 10
249.133333
 20
21.0
 40
4.0
  1
Ｓ．Ｋａｔａｇｉｒｉ
 41
0.333333
  7
STANDARD
100
AcDbText
  0
TEXT
  5
49C
100
AcDbEntity
  8
M75
100
AcDbText
 10
275.666667
 20
21.0
 40
3.5
  1
２０１３－０５－１６
 41
0.47619
  7
STANDARD
100
AcDbText
  0
TEXT
  5
49D
100
AcDbEntity
  8
M75
100
AcDbText
 10
249.133333
 20
10.0
 40
4.0
  1
Ｓ．Ｋａｔａｇｉｒｉ
 41
0.333333
  7
STANDARD
100
AcDbText
  0
TEXT
  5
49E
100
AcDbEntity
  8
M75
100
AcDbText
 10
275.666667
 20
10.0
 40
3.5
  1
２０１３－０５－１６
 41
0.47619
  7
STANDARD
100
AcDbText
  0
LINE
  5
49F
100
AcDbEntity
  8
M79
  6
CONTINUOUS
370
25
 62
     7
100
AcDbLine
 10
25.0
 20
287.0
 11
410.0
 21
287.0
  0
LINE
  5
4A0
100
AcDbEntity
  8
M79
  6
CONTINUOUS
370
25
 62
     7
100
AcDbLine
 10
25.0
 20
10.0
 11
25.0
 21
287.0
  0
LINE
  5
4A1
100
AcDbEntity
  8
M79
  6
CONTINUOUS
370
25
 62
     7
100
AcDbLine
 10
410.0
 20
10.0
 11
410.0
 21
287.0
  0
LINE
  5
4A2
100
AcDbEntity
  8
M79
  6
CONTINUOUS
370
13
 62
     7
100
AcDbLine
 10
0.0
 20
148.5
 11
25.0
 21
148.5
  0
LINE
  5
4A3
100
AcDbEntity
  8
M79
  6
CONTINUOUS
370
13
 62
     7
100
AcDbLine
 10
410.0
 20
148.5
 11
420.0
 21
148.5
  0
LINE
  5
4A4
100
AcDbEntity
  8
M79
  6
CONTINUOUS
370
13
 62
     7
100
AcDbLine
 10
20.0
 20
98.5
 11
25.0
 21
98.5
  0
LINE
  5
4A5
100
AcDbEntity
  8
M79
  6
CONTINUOUS
370
13
 62
     7
100
AcDbLine
 10
20.0
 20
48.5
 11
25.0
 21
48.5
  0
LINE
  5
4A6
100
AcDbEntity
  8
M79
  6
CONTINUOUS
370
13
 62
     7
100
AcDbLine
 10
20.0
 20
198.5
 11
25.0
 21
198.5
  0
LINE
  5
4A7
100
AcDbEntity
  8
M79
  6
CONTINUOUS
370
13
 62
     7
100
AcDbLine
 10
20.0
 20
248.5
 11
25.0
 21
248.5
  0
LINE
  5
4A8
100
AcDbEntity
  8
M79
  6
CONTINUOUS
370
13
 62
     7
100
AcDbLine
 10
410.0
 20
98.5
 11
415.0
 21
98.5
  0
LINE
  5
4A9
100
AcDbEntity
  8
M79
  6
CONTINUOUS
370
13
 62
     7
100
AcDbLine
 10
410.0
 20
48.5
 11
415.0
 21
48.5
  0
LINE
  5
4AA
100
AcDbEntity
  8
M79
  6
CONTINUOUS
370
13
 62
     7
100
AcDbLine
 10
410.0
 20
198.5
 11
415.0
 21
198.5
  0
LINE
  5
4AB
100
AcDbEntity
  8
M79
  6
CONTINUOUS
370
13
 62
     7
100
AcDbLine
 10
410.0
 20
248.5
 11
415.0
 21
248.5
  0
LINE
  5
4AC
100
AcDbEntity
  8
M79
  6
CONTINUOUS
370
13
 62
     7
100
AcDbLine
 10
210.0
 20
0.0
 11
210.0
 21
10.0
  0
LINE
  5
4AD
100
AcDbEntity
  8
M79
  6
CONTINUOUS
370
13
 62
     7
100
AcDbLine
 10
160.0
 20
5.0
 11
160.0
 21
10.0
  0
LINE
  5
4AE
100
AcDbEntity
  8
M79
  6
CONTINUOUS
370
13
 62
     7
100
AcDbLine
 10
110.0
 20
5.0
 11
110.0
 21
10.0
  0
LINE
  5
4AF
100
AcDbEntity
  8
M79
  6
CONTINUOUS
370
13
 62
     7
100
AcDbLine
 10
60.0
 20
5.0
 11
60.0
 21
10.0
  0
LINE
  5
4B0
100
AcDbEntity
  8
M79
  6
CONTINUOUS
370
13
 62
     7
100
AcDbLine
 10
260.0
 20
5.0
 11
260.0
 21
10.0
  0
LINE
  5
4B1
100
AcDbEntity
  8
M79
  6
CONTINUOUS
370
13
 62
     7
100
AcDbLine
 10
310.0
 20
5.0
 11
310.0
 21
10.0
  0
LINE
  5
4B2
100
AcDbEntity
  8
M79
  6
CONTINUOUS
370
13
 62
     7
100
AcDbLine
 10
60.0
 20
287.0
 11
60.0
 21
292.0
  0
LINE
  5
4B3
100
AcDbEntity
  8
M79
  6
CONTINUOUS
370
13
 62
     7
100
AcDbLine
 10
110.0
 20
287.0
 11
110.0
 21
292.0
  0
LINE
  5
4B4
100
AcDbEntity
  8
M79
  6
CONTINUOUS
370
13
 62
     7
100
AcDbLine
 10
160.0
 20
287.0
 11
160.0
 21
292.0
  0
LINE
  5
4B5
100
AcDbEntity
  8
M79
  6
CONTINUOUS
370
13
 62
     7
100
AcDbLine
 10
210.0
 20
287.0
 11
210.0
 21
297.0
  0
LINE
  5
4B6
100
AcDbEntity
  8
M79
  6
CONTINUOUS
370
13
 62
     7
100
AcDbLine
 10
260.0
 20
287.0
 11
260.0
 21
292.0
  0
LINE
  5
4B7
100
AcDbEntity
  8
M79
  6
CONTINUOUS
370
13
 62
     7
100
AcDbLine
 10
310.0
 20
287.0
 11
310.0
 21
292.0
  0
LINE
  5
4B8
100
AcDbEntity
  8
M79
  6
CONTINUOUS
370
13
 62
     7
100
AcDbLine
 10
360.0
 20
287.0
 11
360.0
 21
292.0
  0
LINE
  5
4B9
100
AcDbEntity
  8
M79
  6
CONTINUOUS
370
13
 62
     7
100
AcDbLine
 10
360.0
 20
5.0
 11
360.0
 21
10.0
  0
LINE
  5
4BA
100
AcDbEntity
  8
M79
  6
CONTINUOUS
370
25
 62
     7
100
AcDbLine
 10
25.0
 20
274.0
 11
72.699997
 21
274.0
  0
LINE
  5
4BB
100
AcDbEntity
  8
M79
  6
CONTINUOUS
370
13
 62
     7
100
AcDbLine
 10
170.0
 20
4.999999
 11
170.0
 21
9.999999
  0
LINE
  5
4BC
100
AcDbEntity
  8
M79
  6
CONTINUOUS
370
13
 62
     7
100
AcDbLine
 10
180.0
 20
4.999999
 11
180.0
 21
9.999999
  0
LINE
  5
4BD
100
AcDbEntity
  8
M79
  6
CONTINUOUS
370
13
 62
     7
100
AcDbLine
 10
190.0
 20
4.999999
 11
190.0
 21
9.999999
  0
LINE
  5
4BE
100
AcDbEntity
  8
M79
  6
CONTINUOUS
370
13
 62
     7
100
AcDbLine
 10
200.0
 20
4.999999
 11
200.0
 21
9.999999
  0
LINE
  5
4BF
100
AcDbEntity
  8
M79
  6
CONTINUOUS
370
13
 62
     7
100
AcDbLine
 10
210.0
 20
4.999999
 11
210.0
 21
9.999999
  0
LINE
  5
4C0
100
AcDbEntity
  8
M79
  6
CONTINUOUS
370
13
 62
     7
100
AcDbLine
 10
220.0
 20
4.999999
 11
220.0
 21
9.999999
  0
LINE
  5
4C1
100
AcDbEntity
  8
M79
  6
CONTINUOUS
370
13
 62
     7
100
AcDbLine
 10
230.0
 20
4.999999
 11
230.0
 21
9.999999
  0
LINE
  5
4C2
100
AcDbEntity
  8
M79
  6
CONTINUOUS
370
13
 62
     7
100
AcDbLine
 10
240.0
 20
4.999999
 11
240.0
 21
9.999999
  0
LINE
  5
4C3
100
AcDbEntity
  8
M79
  6
CONTINUOUS
370
13
 62
     7
100
AcDbLine
 10
250.0
 20
4.999999
 11
250.0
 21
9.999999
  0
LINE
  5
4C4
100
AcDbEntity
  8
M79
  6
CONTINUOUS
370
13
 62
     7
100
AcDbLine
 10
162.0
 20
7.499207
 11
162.0
 21
9.999999
  0
LINE
  5
4C5
100
AcDbEntity
  8
M79
  6
CONTINUOUS
370
13
 62
     7
100
AcDbLine
 10
164.0
 20
7.498415
 11
164.0
 21
9.999999
  0
LINE
  5
4C6
100
AcDbEntity
  8
M79
  6
CONTINUOUS
370
13
 62
     7
100
AcDbLine
 10
166.0
 20
7.497622
 11
166.0
 21
9.999999
  0
LINE
  5
4C7
100
AcDbEntity
  8
M79
  6
CONTINUOUS
370
13
 62
     7
100
AcDbLine
 10
168.0
 20
7.496831
 11
168.0
 21
9.999999
  0
LINE
  5
4C8
100
AcDbEntity
  8
M79
  6
CONTINUOUS
370
13
 62
     7
100
AcDbLine
 10
175.0
 20
7.494059
 11
175.0
 21
9.999998
  0
LINE
  5
4C9
100
AcDbEntity
  8
M79
  6
CONTINUOUS
370
13
 62
     7
100
AcDbLine
 10
185.0
 20
7.494058
 11
185.0
 21
9.999997
  0
LINE
  5
4CA
100
AcDbEntity
  8
M79
  6
CONTINUOUS
370
13
 62
     7
100
AcDbLine
 10
195.0
 20
7.494058
 11
195.0
 21
9.999997
  0
LINE
  5
4CB
100
AcDbEntity
  8
M79
  6
CONTINUOUS
370
13
 62
     7
100
AcDbLine
 10
205.0
 20
7.494058
 11
205.0
 21
9.999997
  0
LINE
  5
4CC
100
AcDbEntity
  8
M79
  6
CONTINUOUS
370
13
 62
     7
100
AcDbLine
 10
215.0
 20
7.494058
 11
215.0
 21
9.999997
  0
LINE
  5
4CD
100
AcDbEntity
  8
M79
  6
CONTINUOUS
370
13
 62
     7
100
AcDbLine
 10
225.0
 20
7.494058
 11
225.0
 21
9.999997
  0
LINE
  5
4CE
100
AcDbEntity
  8
M79
  6
CONTINUOUS
370
13
 62
     7
100
AcDbLine
 10
235.0
 20
7.494058
 11
235.0
 21
9.999997
  0
LINE
  5
4CF
100
AcDbEntity
  8
M79
  6
CONTINUOUS
370
13
 62
     7
100
AcDbLine
 10
245.0
 20
7.494058
 11
245.0
 21
9.999997
  0
LINE
  5
4D0
100
AcDbEntity
  8
M79
  6
CONTINUOUS
370
13
 62
     7
100
AcDbLine
 10
255.0
 20
7.494058
 11
255.0
 21
9.999997
  0
LINE
  5
4D1
100
AcDbEntity
  8
M79
  6
CONTINUOUS
370
13
 62
     7
100
AcDbLine
 10
160.0
 20
5.0
 11
260.0
 21
4.960396
  0
TEXT
  5
4D2
100
AcDbEntity
  8
M79
 62
     7
100
AcDbText
 10
18.5
 20
270.0
 40
4.0
  1
Ａ
 41
1.25
  7
STANDARD
100
AcDbText
  0
TEXT
  5
4D3
100
AcDbEntity
  8
M79
 62
     7
100
AcDbText
 10
18.5
 20
220.0
 40
4.0
  1
Ｂ
 41
1.25
  7
STANDARD
100
AcDbText
  0
TEXT
  5
4D4
100
AcDbEntity
  8
M79
 62
     7
100
AcDbText
 10
18.5
 20
170.0
 40
4.0
  1
Ｃ
 41
1.25
  7
STANDARD
100
AcDbText
  0
TEXT
  5
4D5
100
AcDbEntity
  8
M79
 62
     7
100
AcDbText
 10
18.5
 20
120.0
 40
4.0
  1
Ｄ
 41
1.25
  7
STANDARD
100
AcDbText
  0
TEXT
  5
4D6
100
AcDbEntity
  8
M79
 62
     7
100
AcDbText
 10
18.5
 20
70.0
 40
4.0
  1
Ｅ
 41
1.25
  7
STANDARD
100
AcDbText
  0
TEXT
  5
4D7
100
AcDbEntity
  8
M79
 62
     7
100
AcDbText
 10
18.5
 20
30.0
 40
4.0
  1
Ｆ
 41
1.25
  7
STANDARD
100
AcDbText
  0
TEXT
  5
4D8
100
AcDbEntity
  8
M79
 62
     7
100
AcDbText
 10
411.5
 20
270.0
 40
4.0
  1
Ａ
 41
1.25
  7
STANDARD
100
AcDbText
  0
TEXT
  5
4D9
100
AcDbEntity
  8
M79
 62
     7
100
AcDbText
 10
411.5
 20
220.0
 40
4.0
  1
Ｂ
 41
1.25
  7
STANDARD
100
AcDbText
  0
TEXT
  5
4DA
100
AcDbEntity
  8
M79
 62
     7
100
AcDbText
 10
411.5
 20
170.0
 40
4.0
  1
Ｃ
 41
1.25
  7
STANDARD
100
AcDbText
  0
TEXT
  5
4DB
100
AcDbEntity
  8
M79
 62
     7
100
AcDbText
 10
411.5
 20
120.0
 40
4.0
  1
Ｄ
 41
1.25
  7
STANDARD
100
AcDbText
  0
TEXT
  5
4DC
100
AcDbEntity
  8
M79
 62
     7
100
AcDbText
 10
411.5
 20
70.0
 40
4.0
  1
Ｅ
 41
1.25
  7
STANDARD
100
AcDbText
  0
TEXT
  5
4DD
100
AcDbEntity
  8
M79
 62
     7
100
AcDbText
 10
39.5
 20
4.0
 40
4.0
  1
１
 41
1.25
  7
STANDARD
100
AcDbText
  0
TEXT
  5
4DE
100
AcDbEntity
  8
M79
 62
     7
100
AcDbText
 10
81.5
 20
4.0
 40
4.0
  1
２
 41
1.25
  7
STANDARD
100
AcDbText
  0
TEXT
  5
4DF
100
AcDbEntity
  8
M79
 62
     7
100
AcDbText
 10
131.5
 20
4.0
 40
4.0
  1
３
 41
1.25
  7
STANDARD
100
AcDbText
  0
TEXT
  5
4E0
100
AcDbEntity
  8
M79
 62
     7
100
AcDbText
 10
281.5
 20
4.0
 40
4.0
  1
６
 41
1.25
  7
STANDARD
100
AcDbText
  0
TEXT
  5
4E1
100
AcDbEntity
  8
M79
 62
     7
100
AcDbText
 10
331.5
 20
4.0
 40
4.0
  1
７
 41
1.25
  7
STANDARD
100
AcDbText
  0
TEXT
  5
4E2
100
AcDbEntity
  8
M79
 62
     7
100
AcDbText
 10
182.420563
 20
0.724621
 40
4.0
  1
４
 41
1.25
  7
STANDARD
100
AcDbText
  0
TEXT
  5
4E3
100
AcDbEntity
  8
M79
 62
     7
100
AcDbText
 10
232.487747
 20
0.621103
 40
4.0
  1
５
 41
1.25
  7
STANDARD
100
AcDbText
  0
TEXT
  5
4E4
100
AcDbEntity
  8
M79
 62
     7
100
AcDbText
 10
39.5
 20
289.0
 40
4.0
  1
１
 41
1.25
  7
STANDARD
100
AcDbText
  0
TEXT
  5
4E5
100
AcDbEntity
  8
M79
 62
     7
100
AcDbText
 10
81.5
 20
289.0
 40
4.0
  1
２
 41
1.25
  7
STANDARD
100
AcDbText
  0
TEXT
  5
4E6
100
AcDbEntity
  8
M79
 62
     7
100
AcDbText
 10
131.5
 20
289.0
 40
4.0
  1
３
 41
1.25
  7
STANDARD
100
AcDbText
  0
TEXT
  5
4E7
100
AcDbEntity
  8
M79
 62
     7
100
AcDbText
 10
281.5
 20
289.0
 40
4.0
  1
６
 41
1.25
  7
STANDARD
100
AcDbText
  0
TEXT
  5
4E8
100
AcDbEntity
  8
M79
 62
     7
100
AcDbText
 10
331.5
 20
289.0
 40
4.0
  1
７
 41
1.25
  7
STANDARD
100
AcDbText
  0
TEXT
  5
4E9
100
AcDbEntity
  8
M79
 62
     7
100
AcDbText
 10
381.5
 20
289.0
 40
4.0
  1
８
 41
1.25
  7
STANDARD
100
AcDbText
  0
TEXT
  5
4EA
100
AcDbEntity
  8
M79
 62
     7
100
AcDbText
 10
182.420563
 20
288.924561
 40
4.0
  1
４
 41
1.25
  7
STANDARD
100
AcDbText
  0
TEXT
  5
4EB
100
AcDbEntity
  8
M79
 62
     7
100
AcDbText
 10
232.487747
 20
289.020996
 40
4.0
  1
５
 41
1.25
  7
STANDARD
100
AcDbText
  0
TEXT
  5
4EC
100
AcDbEntity
  8
M79
 62
     7
100
AcDbText
 10
158.373433
 20
2.218226
 40
2.0
  1
０
 41
1.666667
  7
STANDARD
100
AcDbText
  0
TEXT
  5
4ED
100
AcDbEntity
  8
M79
 62
     7
100
AcDbText
 10
256.725179
 20
2.129498
 40
2.0
  1
１００
 41
0.916667
  7
STANDARD
100
AcDbText
  0
LINE
  5
4EE
100
AcDbEntity
  8
M79
  6
CONTINUOUS
370
25
 62
     7
100
AcDbLine
 10
72.699997
 20
287.0
 11
72.699997
 21
274.0
  0
LINE
  5
4EF
100
AcDbEntity
  8
M79
  6
CONTINUOUS
370
25
 62
     7
100
AcDbLine
 10
25.0
 20
10.0
 11
410.0
 21
10.0
  0
TEXT
  5
4F0
100
AcDbEntity
  8
M79
 62
     7
100
AcDbText
 10
241.246246
 20
27.470188
 40
2.5
  1
ＤＷＮ．
 41
0.5
  7
STANDARD
100
AcDbText
  0
TEXT
  5
4F1
100
AcDbEntity
  8
M79
 62
     7
100
AcDbText
 10
240.968414
 20
19.642731
 40
2.5
  1
ＣＨＫＤ．
 41
0.5
  7
STANDARD
100
AcDbText
  0
TEXT
  5
4F2
100
AcDbEntity
  8
M79
 62
     7
100
AcDbText
 10
240.867371
 20
11.237426
 40
2.5
  1
ＡＰＰＤ．
 41
0.5
  7
STANDARD
100
AcDbText
  0
TEXT
  5
4F3
100
AcDbEntity
  8
M79
 62
     7
100
AcDbText
 10
334.966502
 20
34.001312
 40
3.0
  1
ＴＩＴＬＥ
 41
0.555556
  7
STANDARD
100
AcDbText
  0
TEXT
  5
4F4
100
AcDbEntity
  8
M79
 62
     7
100
AcDbText
 10
342.164164
 20
22.153
 40
3.0
  1
ＴＯＣＨＩＧＩ　ＤＷＧ．　Ｎｏ．
 41
0.555556
  7
STANDARD
100
AcDbText
  0
TEXT
  5
4F5
100
AcDbEntity
  8
M79
 62
     7
100
AcDbText
 10
319.896495
 20
34.001312
 40
3.0
  1
ＳＣＡＬＥ
 41
0.555556
  7
STANDARD
100
AcDbText
  0
TEXT
  5
4F6
100
AcDbEntity
  8
M79
 62
     7
100
AcDbText
 10
411.5
 20
30.0
 40
4.0
  1
Ｆ
 41
1.25
  7
STANDARD
100
AcDbText
  0
LINE
  5
4F7
100
AcDbEntity
  8
M79
  6
CONTINUOUS
370
25
 62
     7
100
AcDbLine
 10
240.0
 20
37.5
 11
410.0
 21
37.5
  0
LINE
  5
4F8
100
AcDbEntity
  8
M79
  6
CONTINUOUS
370
13
 62
     7
100
AcDbLine
 10
298.0
 20
26.0
 11
410.0
 21
26.0
  0
LINE
  5
4F9
100
AcDbEntity
  8
M79
  6
CONTINUOUS
370
13
 62
     7
100
AcDbLine
 10
334.0
 20
37.5
 11
334.0
 21
26.0
  0
LINE
  5
4FA
100
AcDbEntity
  8
M79
  6
CONTINUOUS
370
13
 62
     7
100
AcDbLine
 10
316.0
 20
37.5
 11
316.0
 21
26.0
  0
LINE
  5
4FB
100
AcDbEntity
  8
M79
  6
CONTINUOUS
370
13
 62
     7
100
AcDbLine
 10
395.0
 20
26.0
 11
395.0
 21
10.0
  0
LINE
  5
4FC
100
AcDbEntity
  8
M79
  6
CONTINUOUS
370
13
 62
     7
100
AcDbLine
 10
298.0
 20
37.5
 11
298.0
 21
10.0
  0
LINE
  5
4FD
100
AcDbEntity
  8
M79
  6
CONTINUOUS
370
13
 62
     7
100
AcDbLine
 10
240.0
 20
26.5
 11
298.0
 21
26.5
  0
LINE
  5
4FE
100
AcDbEntity
  8
M79
  6
CONTINUOUS
370
13
 62
     7
100
AcDbLine
 10
248.0
 20
32.0
 11
248.0
 21
10.0
  0
LINE
  5
4FF
100
AcDbEntity
  8
M79
  6
CONTINUOUS
370
13
 62
     7
100
AcDbLine
 10
240.0
 20
32.0
 11
298.0
 21
32.0
  0
LINE
  5
500
100
AcDbEntity
  8
M79
  6
CONTINUOUS
370
25
 62
     7
100
AcDbLine
 10
240.0
 20
37.5
 11
240.0
 21
10.0
  0
LINE
  5
501
100
AcDbEntity
  8
M79
  6
CONTINUOUS
370
13
 62
     7
100
AcDbLine
 10
273.0
 20
37.5
 11
273.0
 21
10.0
  0
LINE
  5
502
100
AcDbEntity
  8
M79
  6
CONTINUOUS
370
13
 62
     7
100
AcDbLine
 10
248.0
 20
21.0
 11
298.0
 21
21.0
  0
LINE
  5
503
100
AcDbEntity
  8
M79
  6
CONTINUOUS
370
13
 62
     7
100
AcDbLine
 10
240.0
 20
15.5
 11
298.0
 21
15.5
  0
LINE
  5
504
100
AcDbEntity
  8
M79
  6
CONTINUOUS
370
13
 62
     7
100
AcDbLine
 10
341.3
 20
26.0
 11
341.3
 21
10.0
  0
TEXT
  5
505
100
AcDbEntity
  8
M79
 62
     7
100
AcDbText
 10
398.43067
 20
23.014603
 40
2.8
  1
ＲＥＧＤ．
 41
0.535714
  7
STANDARD
100
AcDbText
  0
TEXT
  5
506
100
AcDbEntity
  8
M79
 62
     7
100
AcDbText
 10
281.166667
 20
33.0
 40
3.0
  1
ＤＡＴＥ
 41
0.555556
  7
STANDARD
100
AcDbText
  0
TEXT
  5
507
100
AcDbEntity
  8
M79
 62
     7
100
AcDbText
 10
248.166667
 20
33.0
 40
3.0
  1
ＳＩＧＮＡＴＵＲＥ
 41
0.555556
  7
STANDARD
100
AcDbText
  0
TEXT
  5
508
100
AcDbEntity
  8
M79
 62
     7
100
AcDbText
 10
299.816162
 20
34.347473
 40
2.5
  1
ＰＲＯＪＥＣＴＩＯＮ
 41
0.5
  7
STANDARD
100
AcDbText
  0
LINE
  5
509
100
AcDbEntity
  8
M79
  6
CONTINUOUS
370
25
 62
     7
100
AcDbLine
 10
400.990983
 20
32.8
 11
401.3
 21
32.8
  0
ARC
  5
50A
100
AcDbEntity
  8
M79
  6
CONTINUOUS
370
25
 62
     7
100
AcDbCircle
 10
400.990983
 20
34.0
 40
0.2
100
AcDbArc
 50
90.0
 51
138.189685
  0
ARC
  5
50B
100
AcDbEntity
  8
M79
  6
CONTINUOUS
370
25
 62
     7
100
AcDbCircle
 10
401.55
 20
33.5
 40
0.95
100
AcDbArc
 50
138.189685
 51
221.810315
  0
ELLIPSE
  5
50C
100
AcDbEntity
  8
M79
  6
CONTINUOUS
370
25
 62
     7
100
AcDbEllipse
 10
404.0
 20
33.5
 11
5.0
 21
0.0
210
0.0
220
0.0
230
1.0
 40
0.6
 41
0.0
 42
6.283185307179586
  0
LINE
  5
50D
100
AcDbEntity
  8
M79
  6
CONTINUOUS
370
25
 62
     7
100
AcDbLine
 10
402.1
 20
35.2
 11
402.1
 21
34.894427
  0
LINE
  5
50E
100
AcDbEntity
  8
M79
  6
CONTINUOUS
370
25
 62
     7
100
AcDbLine
 10
406.8
 20
34.2
 11
406.8
 21
32.8
  0
LINE
  5
50F
100
AcDbEntity
  8
M79
  6
CONTINUOUS
370
25
 62
     7
100
AcDbLine
 10
405.8
 20
34.2
 11
406.0
 21
34.2
  0
LINE
  5
510
100
AcDbEntity
  8
M79
  6
CONTINUOUS
370
25
 62
     7
100
AcDbLine
 10
407.209017
 20
32.8
 11
406.8
 21
32.8
  0
LINE
  5
511
100
AcDbEntity
  8
M79
  6
CONTINUOUS
370
25
 62
     7
100
AcDbLine
 10
406.8
 20
34.2
 11
407.209017
 21
34.2
  0
LINE
  5
512
100
AcDbEntity
  8
M79
  6
CONTINUOUS
370
25
 62
     7
100
AcDbLine
 10
406.0
 20
32.8
 11
405.8
 21
32.8
  0
LINE
  5
513
100
AcDbEntity
  8
M79
  6
CONTINUOUS
370
25
 62
     7
100
AcDbLine
 10
403.189003
 20
31.8
 11
403.458233
 21
32.5
  0
LINE
  5
514
100
AcDbEntity
  8
M79
  6
CONTINUOUS
370
25
 62
     7
100
AcDbLine
 10
404.810997
 20
31.8
 11
404.541767
 21
32.5
  0
LINE
  5
515
100
AcDbEntity
  8
M79
  6
CONTINUOUS
370
25
 62
     7
100
AcDbLine
 10
403.727464
 20
33.2
 11
404.0
 21
34.108593
  0
LINE
  5
516
100
AcDbEntity
  8
M79
  6
CONTINUOUS
370
25
 62
     7
100
AcDbLine
 10
403.727464
 20
33.2
 11
404.272536
 21
33.2
  0
LINE
  5
517
100
AcDbEntity
  8
M79
  6
CONTINUOUS
370
25
 62
     7
100
AcDbLine
 10
404.272536
 20
33.2
 11
404.0
 21
34.108593
  0
LINE
  5
518
100
AcDbEntity
  8
M79
  6
CONTINUOUS
370
25
 62
     7
100
AcDbLine
 10
403.458233
 20
32.5
 11
404.541767
 21
32.5
  0
LINE
  5
519
100
AcDbEntity
  8
M79
  6
CONTINUOUS
370
25
 62
     7
100
AcDbLine
 10
406.0
 20
34.2
 11
406.0
 21
32.8
  0
LINE
  5
51A
100
AcDbEntity
  8
M79
  6
CONTINUOUS
370
25
 62
     7
100
AcDbLine
 10
400.990983
 20
35.2
 11
401.3
 21
35.2
  0
LINE
  5
51B
100
AcDbEntity
  8
M79
  6
CONTINUOUS
370
25
 62
     7
100
AcDbLine
 10
402.1
 20
35.2
 11
402.5
 21
35.2
  0
LINE
  5
51C
100
AcDbEntity
  8
M79
  6
CONTINUOUS
370
25
 62
     7
100
AcDbLine
 10
402.5
 20
35.2
 11
402.5
 21
33.9
  0
LINE
  5
51D
100
AcDbEntity
  8
M79
  6
CONTINUOUS
370
25
 62
     7
100
AcDbLine
 10
400.990983
 20
31.8
 11
401.3
 21
31.8
  0
LINE
  5
51E
100
AcDbEntity
  8
M79
  6
CONTINUOUS
370
25
 62
     7
100
AcDbLine
 10
403.65
 20
35.2
 11
404.35
 21
35.2
  0
LINE
  5
51F
100
AcDbEntity
  8
M79
  6
CONTINUOUS
370
25
 62
     7
100
AcDbLine
 10
402.317588
 20
31.8
 11
403.189003
 21
31.8
  0
LINE
  5
520
100
AcDbEntity
  8
M79
  6
CONTINUOUS
370
25
 62
     7
100
AcDbLine
 10
404.810997
 20
31.8
 11
405.682412
 21
31.8
  0
LINE
  5
521
100
AcDbEntity
  8
M79
  6
CONTINUOUS
370
25
 62
     7
100
AcDbLine
 10
407.009017
 20
31.8
 11
405.8
 21
31.8
  0
LINE
  5
522
100
AcDbEntity
  8
M79
  6
CONTINUOUS
370
25
 62
     7
100
AcDbLine
 10
405.8
 20
35.2
 11
407.009017
 21
35.2
  0
LINE
  5
523
100
AcDbEntity
  8
M79
  6
CONTINUOUS
370
25
 62
     7
100
AcDbLine
 10
405.8
 20
35.2
 11
405.8
 21
34.2
  0
LINE
  5
524
100
AcDbEntity
  8
M79
  6
CONTINUOUS
370
25
 62
     7
100
AcDbLine
 10
405.8
 20
32.8
 11
405.8
 21
31.8
  0
LINE
  5
525
100
AcDbEntity
  8
M79
  6
CONTINUOUS
370
25
 62
     7
100
AcDbLine
 10
403.65
 20
35.2
 11
402.317588
 21
31.8
  0
LINE
  5
526
100
AcDbEntity
  8
M79
  6
CONTINUOUS
370
25
 62
     7
100
AcDbLine
 10
404.35
 20
35.2
 11
405.682412
 21
31.8
  0
LINE
  5
527
100
AcDbEntity
  8
M79
  6
CONTINUOUS
370
25
 62
     7
100
AcDbLine
 10
402.5
 20
33.9
 11
401.602667
 21
33.9
  0
LINE
  5
528
100
AcDbEntity
  8
M79
  6
CONTINUOUS
370
25
 62
     7
100
AcDbLine
 10
402.495826
 20
33.1
 11
401.602667
 21
33.1
  0
LINE
  5
529
100
AcDbEntity
  8
M79
  6
CONTINUOUS
370
25
 62
     7
100
AcDbLine
 10
401.820551
 20
30.8
 11
406.179449
 21
30.8
  0
LINE
  5
52A
100
AcDbEntity
  8
M79
  6
CONTINUOUS
370
25
 62
     7
100
AcDbLine
 10
401.0
 20
31.1
 11
407.0
 21
31.1
  0
LINE
  5
52B
100
AcDbEntity
  8
M79
  6
CONTINUOUS
370
25
 62
     7
100
AcDbLine
 10
400.429286
 20
31.4
 11
407.570714
 21
31.4
  0
LINE
  5
52C
100
AcDbEntity
  8
M79
  6
CONTINUOUS
370
25
 62
     7
100
AcDbLine
 10
400.0
 20
31.7
 11
408.0
 21
31.7
  0
LINE
  5
52D
100
AcDbEntity
  8
M79
  6
CONTINUOUS
370
25
 62
     7
100
AcDbLine
 10
399.669873
 20
32.0
 11
400.327658
 21
32.0
  0
LINE
  5
52E
100
AcDbEntity
  8
M79
  6
CONTINUOUS
370
25
 62
     7
100
AcDbLine
 10
401.963325
 20
32.0
 11
402.395965
 21
32.0
  0
LINE
  5
52F
100
AcDbEntity
  8
M79
  6
CONTINUOUS
370
25
 62
     7
100
AcDbLine
 10
403.265926
 20
32.0
 11
404.734074
 21
32.0
  0
LINE
  5
530
100
AcDbEntity
  8
M79
  6
CONTINUOUS
370
25
 62
     7
100
AcDbLine
 10
405.604035
 20
32.0
 11
405.8
 21
32.0
  0
LINE
  5
531
100
AcDbEntity
  8
M79
  6
CONTINUOUS
370
25
 62
     7
100
AcDbLine
 10
407.672342
 20
32.0
 11
408.330127
 21
32.0
  0
LINE
  5
532
100
AcDbEntity
  8
M79
  6
CONTINUOUS
370
25
 62
     7
100
AcDbLine
 10
399.417424
 20
32.3
 11
400.012957
 21
32.3
  0
LINE
  5
533
100
AcDbEntity
  8
M79
  6
CONTINUOUS
370
25
 62
     7
100
AcDbLine
 10
402.274679
 20
32.3
 11
402.513531
 21
32.3
  0
LINE
  5
534
100
AcDbEntity
  8
M79
  6
CONTINUOUS
370
25
 62
     7
100
AcDbLine
 10
403.38131
 20
32.3
 11
404.61869
 21
32.3
  0
LINE
  5
535
100
AcDbEntity
  8
M79
  6
CONTINUOUS
370
25
 62
     7
100
AcDbLine
 10
405.486469
 20
32.3
 11
405.8
 21
32.3
  0
LINE
  5
536
100
AcDbEntity
  8
M79
  6
CONTINUOUS
370
25
 62
     7
100
AcDbLine
 10
407.987043
 20
32.3
 11
408.582576
 21
32.3
  0
LINE
  5
537
100
AcDbEntity
  8
M79
  6
CONTINUOUS
370
25
 62
     7
100
AcDbLine
 10
399.230304
 20
32.6
 11
399.820116
 21
32.6
  0
LINE
  5
538
100
AcDbEntity
  8
M79
  6
CONTINUOUS
370
25
 62
     7
100
AcDbLine
 10
402.431371
 20
32.6
 11
402.631097
 21
32.6
  0
LINE
  5
539
100
AcDbEntity
  8
M79
  6
CONTINUOUS
370
25
 62
     7
100
AcDbLine
 10
405.368903
 20
32.6
 11
405.8
 21
32.6
  0
LINE
  5
53A
100
AcDbEntity
  8
M79
  6
CONTINUOUS
370
25
 62
     7
100
AcDbLine
 10
408.179884
 20
32.6
 11
408.769696
 21
32.6
  0
LINE
  5
53B
100
AcDbEntity
  8
M79
  6
CONTINUOUS
370
25
 62
     7
100
AcDbLine
 10
399.101021
 20
32.9
 11
399.694602
 21
32.9
  0
LINE
  5
53C
100
AcDbEntity
  8
M79
  6
CONTINUOUS
370
25
 62
     7
100
AcDbLine
 10
400.813454
 20
32.9
 11
401.477529
 21
32.9
  0
LINE
  5
53D
100
AcDbEntity
  8
M79
  6
CONTINUOUS
370
25
 62
     7
100
AcDbLine
 10
402.495826
 20
32.9
 11
402.748663
 21
32.9
  0
LINE
  5
53E
100
AcDbEntity
  8
M79
  6
CONTINUOUS
370
25
 62
     7
100
AcDbLine
 10
405.251337
 20
32.9
 11
406.0
 21
32.9
  0
ARC
  5
53F
100
AcDbEntity
  8
M79
  6
CONTINUOUS
370
25
 62
     7
100
AcDbCircle
 10
400.990983
 20
33.0
 40
0.2
100
AcDbArc
 50
221.810315
 51
270.0
  0
LINE
  5
540
100
AcDbEntity
  8
M79
  6
CONTINUOUS
370
25
 62
     7
100
AcDbLine
 10
400.990983
 20
34.2
 11
401.3
 21
34.2
  0
ARC
  5
541
100
AcDbEntity
  8
M79
  6
CONTINUOUS
370
25
 62
     7
100
AcDbCircle
 10
406.65
 20
33.5
 40
0.95
100
AcDbArc
 50
318.189685
 51
401.810315
  0
LINE
  5
542
100
AcDbEntity
  8
M79
  6
CONTINUOUS
370
25
 62
     7
100
AcDbLine
 10
406.8
 20
34.0
 11
407.457775
 21
34.0
  0
ARC
  5
543
100
AcDbEntity
  8
M79
  6
CONTINUOUS
370
25
 62
     7
100
AcDbCircle
 10
407.209017
 20
34.0
 40
0.2
100
AcDbArc
 50
41.810315
 51
90.0
  0
ARC
  5
544
100
AcDbEntity
  8
M79
  6
CONTINUOUS
370
25
 62
     7
100
AcDbCircle
 10
407.209017
 20
33.0
 40
0.2
100
AcDbArc
 50
270.0
 51
318.189685
  0
ARC
  5
545
100
AcDbEntity
  8
M79
  6
CONTINUOUS
370
25
 62
     7
100
AcDbCircle
 10
401.3
 20
34.0
 40
1.2
100
AcDbArc
 50
48.189685
 51
90.0
  0
ARC
  5
546
100
AcDbEntity
  8
M79
  6
CONTINUOUS
370
25
 62
     7
100
AcDbCircle
 10
400.990983
 20
34.0
 40
1.2
100
AcDbArc
 50
90.0
 51
138.189685
  0
ARC
  5
547
100
AcDbEntity
  8
M79
  6
CONTINUOUS
370
25
 62
     7
100
AcDbCircle
 10
401.55
 20
33.5
 40
1.95
100
AcDbArc
 50
138.189685
 51
221.810315
  0
ARC
  5
548
100
AcDbEntity
  8
M79
  6
CONTINUOUS
370
25
 62
     7
100
AcDbCircle
 10
400.990983
 20
33.0
 40
1.2
100
AcDbArc
 50
221.810315
 51
270.0
  0
ARC
  5
549
100
AcDbEntity
  8
M79
  6
CONTINUOUS
370
25
 62
     7
100
AcDbCircle
 10
401.3
 20
33.0
 40
1.2
100
AcDbArc
 50
270.0
 51
364.780192
  0
ARC
  5
54A
100
AcDbEntity
  8
M79
  6
CONTINUOUS
370
25
 62
     7
100
AcDbCircle
 10
406.45
 20
33.5
 40
1.95
100
AcDbArc
 50
318.189685
 51
401.810315
  0
ARC
  5
54B
100
AcDbEntity
  8
M79
  6
CONTINUOUS
370
25
 62
     7
100
AcDbCircle
 10
407.009017
 20
33.0
 40
1.2
100
AcDbArc
 50
270.0
 51
318.189685
  0
ARC
  5
54C
100
AcDbEntity
  8
M79
  6
CONTINUOUS
370
25
 62
     7
100
AcDbCircle
 10
407.009017
 20
34.0
 40
1.2
100
AcDbArc
 50
41.810315
 51
90.0
  0
ARC
  5
54D
100
AcDbEntity
  8
M79
  6
CONTINUOUS
370
25
 62
     7
100
AcDbCircle
 10
401.3
 20
34.0
 40
0.2
100
AcDbArc
 50
41.810315
 51
90.0
  0
ARC
  5
54E
100
AcDbEntity
  8
M79
  6
CONTINUOUS
370
25
 62
     7
100
AcDbCircle
 10
400.740983
 20
33.5
 40
0.95
100
AcDbArc
 50
318.189685
 51
335.098938
  0
ARC
  5
54F
100
AcDbEntity
  8
M79
  6
CONTINUOUS
370
25
 62
     7
100
AcDbCircle
 10
401.3
 20
33.0
 40
0.2
100
AcDbArc
 50
270.0
 51
318.189685
  0
ARC
  5
550
100
AcDbEntity
  8
M79
  6
CONTINUOUS
370
25
 62
     7
100
AcDbCircle
 10
400.740983
 20
33.5
 40
0.95
100
AcDbArc
 50
24.901062
 51
41.810315
  0
LINE
  5
551
100
AcDbEntity
  8
M79
  6
CONTINUOUS
370
25
 62
     7
100
AcDbLine
 10
408.305398
 20
32.9
 11
408.898979
 21
32.9
  0
LINE
  5
552
100
AcDbEntity
  8
M79
  6
CONTINUOUS
370
25
 62
     7
100
AcDbLine
 10
399.025063
 20
33.2
 11
399.623215
 21
33.2
  0
LINE
  5
553
100
AcDbEntity
  8
M79
  6
CONTINUOUS
370
25
 62
     7
100
AcDbLine
 10
400.648612
 20
33.2
 11
402.866228
 21
33.2
  0
LINE
  5
554
100
AcDbEntity
  8
M79
  6
CONTINUOUS
370
25
 62
     7
100
AcDbLine
 10
405.133772
 20
33.2
 11
406.0
 21
33.2
  0
LINE
  5
555
100
AcDbEntity
  8
M79
  6
CONTINUOUS
370
25
 62
     7
100
AcDbLine
 10
408.376785
 20
33.2
 11
408.974937
 21
33.2
  0
LINE
  5
556
100
AcDbEntity
  8
M79
  6
CONTINUOUS
370
25
 62
     7
100
AcDbLine
 10
399.0
 20
33.5
 11
399.6
 21
33.5
  0
LINE
  5
557
100
AcDbEntity
  8
M79
  6
CONTINUOUS
370
25
 62
     7
100
AcDbLine
 10
400.6
 20
33.5
 11
402.983794
 21
33.5
  0
LINE
  5
558
100
AcDbEntity
  8
M79
  6
CONTINUOUS
370
25
 62
     7
100
AcDbLine
 10
405.016206
 20
33.5
 11
406.0
 21
33.5
  0
LINE
  5
559
100
AcDbEntity
  8
M79
  6
CONTINUOUS
370
25
 62
     7
100
AcDbLine
 10
408.4
 20
33.5
 11
409.0
 21
33.5
  0
LINE
  5
55A
100
AcDbEntity
  8
M79
  6
CONTINUOUS
370
25
 62
     7
100
AcDbLine
 10
399.025063
 20
33.8
 11
399.623215
 21
33.8
  0
LINE
  5
55B
100
AcDbEntity
  8
M79
  6
CONTINUOUS
370
25
 62
     7
100
AcDbLine
 10
400.648612
 20
33.8
 11
403.10136
 21
33.8
  0
LINE
  5
55C
100
AcDbEntity
  8
M79
  6
CONTINUOUS
370
25
 62
     7
100
AcDbLine
 10
404.89864
 20
33.8
 11
406.0
 21
33.8
  0
LINE
  5
55D
100
AcDbEntity
  8
M79
  6
CONTINUOUS
370
25
 62
     7
100
AcDbLine
 10
408.376785
 20
33.8
 11
408.974937
 21
33.8
  0
LINE
  5
55E
100
AcDbEntity
  8
M79
  6
CONTINUOUS
370
25
 62
     7
100
AcDbLine
 10
399.101021
 20
34.1
 11
399.694602
 21
34.1
  0
LINE
  5
55F
100
AcDbEntity
  8
M79
  6
CONTINUOUS
370
25
 62
     7
100
AcDbLine
 10
400.813454
 20
34.1
 11
401.477529
 21
34.1
  0
LINE
  5
560
100
AcDbEntity
  8
M79
  6
CONTINUOUS
370
25
 62
     7
100
AcDbLine
 10
402.5
 20
34.1
 11
403.218926
 21
34.1
  0
LINE
  5
561
100
AcDbEntity
  8
M79
  6
CONTINUOUS
370
25
 62
     7
100
AcDbLine
 10
404.781074
 20
34.1
 11
406.0
 21
34.1
  0
LINE
  5
562
100
AcDbEntity
  8
M79
  6
CONTINUOUS
370
25
 62
     7
100
AcDbLine
 10
408.305398
 20
34.1
 11
408.898979
 21
34.1
  0
LINE
  5
563
100
AcDbEntity
  8
M79
  6
CONTINUOUS
370
25
 62
     7
100
AcDbLine
 10
399.230304
 20
34.4
 11
399.820116
 21
34.4
  0
LINE
  5
564
100
AcDbEntity
  8
M79
  6
CONTINUOUS
370
25
 62
     7
100
AcDbLine
 10
402.5
 20
34.4
 11
403.336491
 21
34.4
  0
LINE
  5
565
100
AcDbEntity
  8
M79
  6
CONTINUOUS
370
25
 62
     7
100
AcDbLine
 10
404.663509
 20
34.4
 11
405.8
 21
34.4
  0
LINE
  5
566
100
AcDbEntity
  8
M79
  6
CONTINUOUS
370
25
 62
     7
100
AcDbLine
 10
408.179884
 20
34.4
 11
408.769696
 21
34.4
  0
LINE
  5
567
100
AcDbEntity
  8
M79
  6
CONTINUOUS
370
25
 62
     7
100
AcDbLine
 10
399.417424
 20
34.7
 11
400.012957
 21
34.7
  0
LINE
  5
568
100
AcDbEntity
  8
M79
  6
CONTINUOUS
370
25
 62
     7
100
AcDbLine
 10
402.5
 20
34.7
 11
403.454057
 21
34.7
  0
LINE
  5
569
100
AcDbEntity
  8
M79
  6
CONTINUOUS
370
25
 62
     7
100
AcDbLine
 10
404.545943
 20
34.7
 11
405.8
 21
34.7
  0
LINE
  5
56A
100
AcDbEntity
  8
M79
  6
CONTINUOUS
370
25
 62
     7
100
AcDbLine
 10
407.987043
 20
34.7
 11
408.582576
 21
34.7
  0
LINE
  5
56B
100
AcDbEntity
  8
M79
  6
CONTINUOUS
370
25
 62
     7
100
AcDbLine
 10
399.669873
 20
35.0
 11
400.327658
 21
35.0
  0
LINE
  5
56C
100
AcDbEntity
  8
M79
  6
CONTINUOUS
370
25
 62
     7
100
AcDbLine
 10
401.963325
 20
35.0
 11
402.1
 21
35.0
  0
LINE
  5
56D
100
AcDbEntity
  8
M79
  6
CONTINUOUS
370
25
 62
     7
100
AcDbLine
 10
402.5
 20
35.0
 11
403.571623
 21
35.0
  0
LINE
  5
56E
100
AcDbEntity
  8
M79
  6
CONTINUOUS
370
25
 62
     7
100
AcDbLine
 10
404.428377
 20
35.0
 11
405.8
 21
35.0
  0
LINE
  5
56F
100
AcDbEntity
  8
M79
  6
CONTINUOUS
370
25
 62
     7
100
AcDbLine
 10
407.672342
 20
35.0
 11
408.330127
 21
35.0
  0
LINE
  5
570
100
AcDbEntity
  8
M79
  6
CONTINUOUS
370
25
 62
     7
100
AcDbLine
 10
400.0
 20
35.3
 11
408.0
 21
35.3
  0
LINE
  5
571
100
AcDbEntity
  8
M79
  6
CONTINUOUS
370
25
 62
     7
100
AcDbLine
 10
400.429286
 20
35.6
 11
407.570714
 21
35.6
  0
LINE
  5
572
100
AcDbEntity
  8
M79
  6
CONTINUOUS
370
25
 62
     7
100
AcDbLine
 10
401.0
 20
35.9
 11
407.0
 21
35.9
  0
LINE
  5
573
100
AcDbEntity
  8
M79
  6
CONTINUOUS
370
25
 62
     7
100
AcDbLine
 10
401.820551
 20
36.2
 11
406.179449
 21
36.2
  0
LINE
  5
574
100
AcDbEntity
  8
M79
  6
CONTINUOUS
370
25
 62
     7
100
AcDbLine
 10
403.81745
 20
33.5
 11
404.18255
 21
33.5
  0
LINE
  5
575
100
AcDbEntity
  8
M79
  6
CONTINUOUS
370
25
 62
     7
100
AcDbLine
 10
403.907436
 20
33.8
 11
404.092564
 21
33.8
  0
LINE
  5
576
100
AcDbEntity
  8
M79
  6
CONTINUOUS
370
25
 62
     7
100
AcDbLine
 10
403.997422
 20
34.1
 11
404.002578
 21
34.1
  0
LINE
  5
577
100
AcDbEntity
  8
M79
  6
CONTINUOUS
370
25
 62
     7
100
AcDbLine
 10
406.8
 20
33.1
 11
407.511684
 21
33.1
  0
LINE
  5
578
100
AcDbEntity
  8
M79
  6
CONTINUOUS
370
25
 62
     7
100
AcDbLine
 10
406.8
 20
33.4
 11
407.594722
 21
33.4
  0
LINE
  5
579
100
AcDbEntity
  8
M79
  6
CONTINUOUS
370
25
 62
     7
100
AcDbLine
 10
406.8
 20
33.7
 11
407.578709
 21
33.7
  0
LINE
  5
57A
100
AcDbEntity
  8
M79
  6
CONTINUOUS
370
25
 62
     7
100
AcDbLine
 10
308.078572
 20
28.751659
 11
313.342243
 21
27.501659
  0
LINE
  5
57B
100
AcDbEntity
  8
M79
  6
CONTINUOUS
370
25
 62
     7
100
AcDbLine
 10
308.078572
 20
31.251659
 11
308.078572
 21
28.751659
  0
CIRCLE
  5
57C
100
AcDbEntity
  8
M79
  6
CONTINUOUS
370
25
 62
     7
100
AcDbCircle
 10
302.493366
 20
30.001659
 40
1.25
  0
LINE
  5
57D
100
AcDbEntity
  8
M79
  6
CONTINUOUS
370
25
 62
     7
100
AcDbLine
 10
313.342243
 20
32.501659
 11
313.342243
 21
27.501659
  0
LINE
  5
57E
100
AcDbEntity
  8
M79
  6
DASHDOT
370
13
 62
     7
100
AcDbLine
 10
299.09737
 20
30.001659
 11
315.354218
 21
30.001659
  0
LINE
  5
57F
100
AcDbEntity
  8
M79
  6
DASHDOT
370
13
 62
     7
100
AcDbLine
 10
302.493366
 20
26.945247
 11
302.493366
 21
33.62408
  0
LINE
  5
580
100
AcDbEntity
  8
M79
  6
CONTINUOUS
370
25
 62
     7
100
AcDbLine
 10
308.078572
 20
31.251659
 11
313.342243
 21
32.501659
  0
CIRCLE
  5
581
100
AcDbEntity
  8
M79
  6
CONTINUOUS
370
25
 62
     7
100
AcDbCircle
 10
302.493366
 20
30.001659
 40
2.5
  0
TEXT
  5
582
100
AcDbEntity
  8
M79
 62
     7
100
AcDbText
 10
298.321647
 20
17.727871
 40
4.2
  1
Ｈ
 41
0.515873
  7
STANDARD
100
AcDbText
  0
TEXT
  5
583
100
AcDbEntity
  8
M79
 62
     7
100
AcDbText
 10
322.679892
 20
14.006361
 40
2.9
  1
ｐ
 41
0.603448
  7
STANDARD
100
AcDbText
  0
TEXT
  5
584
100
AcDbEntity
  8
M79
 62
     7
100
AcDbText
 10
321.279813
 20
13.906359
 40
2.9
  1
ａ
 41
0.603448
  7
STANDARD
100
AcDbText
  0
TEXT
  5
585
100
AcDbEntity
  8
M79
 62
     7
100
AcDbText
 10
319.879855
 20
13.906359
 40
2.9
  1
Ｊ
 41
0.603448
  7
STANDARD
100
AcDbText
  0
TEXT
  5
586
100
AcDbEntity
  8
M79
 62
     7
100
AcDbText
 10
316.779853
 20
13.906361
 40
2.9
  1
ｏ
 41
0.603448
  7
STANDARD
100
AcDbText
  0
TEXT
  5
587
100
AcDbEntity
  8
M79
 62
     7
100
AcDbText
 10
315.379773
 20
13.906361
 40
2.9
  1
ｙ
 41
0.603448
  7
STANDARD
100
AcDbText
  0
TEXT
  5
588
100
AcDbEntity
  8
M79
 62
     7
100
AcDbText
 10
313.87987
 20
13.906361
 40
2.9
  1
ｋ
 41
0.603448
  7
STANDARD
100
AcDbText
  0
TEXT
  5
589
100
AcDbEntity
  8
M79
 62
     7
100
AcDbText
 10
312.379815
 20
13.906361
 40
2.9
  1
ｏ
 41
0.603448
  7
STANDARD
100
AcDbText
  0
TEXT
  5
58A
100
AcDbEntity
  8
M79
 62
     7
100
AcDbText
 10
310.979857
 20
13.906361
 40
2.9
  1
Ｔ
 41
0.603448
  7
STANDARD
100
AcDbText
  0
TEXT
  5
58B
100
AcDbEntity
  8
M79
 62
     7
100
AcDbText
 10
324.279801
 20
13.906359
 40
2.9
  1
ａ
 41
0.603448
  7
STANDARD
100
AcDbText
  0
TEXT
  5
58C
100
AcDbEntity
  8
M79
 62
     7
100
AcDbText
 10
325.739766
 20
13.906359
 40
2.9
  1
ｎ
 41
0.603448
  7
STANDARD
100
AcDbText
  0
TEXT
  5
58D
100
AcDbEntity
  8
M79
 62
     7
100
AcDbText
 10
299.621647
 20
17.727871
 40
4.2
  1
ｉ
 41
0.515873
  7
STANDARD
100
AcDbText
  0
TEXT
  5
58E
100
AcDbEntity
  8
M79
 62
     7
100
AcDbText
 10
302.221647
 20
17.727871
 40
4.2
  1
ａ
 41
0.515873
  7
STANDARD
100
AcDbText
  0
TEXT
  5
58F
100
AcDbEntity
  8
M79
 62
     7
100
AcDbText
 10
300.921647
 20
17.727871
 40
4.2
  1
ｔ
 41
0.515873
  7
STANDARD
100
AcDbText
  0
TEXT
  5
590
100
AcDbEntity
  8
M79
 62
     7
100
AcDbText
 10
303.521647
 20
17.727871
 40
4.2
  1
ｃ
 41
0.515873
  7
STANDARD
100
AcDbText
  0
TEXT
  5
591
100
AcDbEntity
  8
M79
 62
     7
100
AcDbText
 10
306.121647
 20
17.727871
 40
4.2
  1
ｉ
 41
0.515873
  7
STANDARD
100
AcDbText
  0
TEXT
  5
592
100
AcDbEntity
  8
M79
 62
     7
100
AcDbText
 10
304.821647
 20
17.727871
 40
4.2
  1
ｈ
 41
0.515873
  7
STANDARD
100
AcDbText
  0
TEXT
  5
593
100
AcDbEntity
  8
M79
 62
     7
100
AcDbText
 10
308.421647
 20
17.727871
 40
4.2
  1
Ｇ
 41
0.515873
  7
STANDARD
100
AcDbText
  0
TEXT
  5
594
100
AcDbEntity
  8
M79
 62
     7
100
AcDbText
 10
309.721647
 20
17.727871
 40
4.2
  1
ｌ
 41
0.515873
  7
STANDARD
100
AcDbText
  0
TEXT
  5
595
100
AcDbEntity
  8
M79
 62
     7
100
AcDbText
 10
311.021647
 20
17.727871
 40
4.2
  1
ｏ
 41
0.515873
  7
STANDARD
100
AcDbText
  0
TEXT
  5
596
100
AcDbEntity
  8
M79
 62
     7
100
AcDbText
 10
312.321647
 20
17.727871
 40
4.2
  1
ｂ
 41
0.515873
  7
STANDARD
100
AcDbText
  0
TEXT
  5
597
100
AcDbEntity
  8
M79
 62
     7
100
AcDbText
 10
313.621647
 20
17.727871
 40
4.2
  1
ａ
 41
0.515873
  7
STANDARD
100
AcDbText
  0
TEXT
  5
598
100
AcDbEntity
  8
M79
 62
     7
100
AcDbText
 10
314.921648
 20
17.727871
 40
4.2
  1
ｌ
 41
0.515873
  7
STANDARD
100
AcDbText
  0
TEXT
  5
599
100
AcDbEntity
  8
M79
 62
     7
100
AcDbText
 10
317.221647
 20
17.727871
 40
4.2
  1
Ｌ
 41
0.515873
  7
STANDARD
100
AcDbText
  0
TEXT
  5
59A
100
AcDbEntity
  8
M79
 62
     7
100
AcDbText
 10
318.521646
 20
17.727871
 40
4.2
  1
ｉ
 41
0.515873
  7
STANDARD
100
AcDbText
  0
TEXT
  5
59B
100
AcDbEntity
  8
M79
 62
     7
100
AcDbText
 10
319.821647
 20
17.727871
 40
4.2
  1
ｆ
 41
0.515873
  7
STANDARD
100
AcDbText
  0
TEXT
  5
59C
100
AcDbEntity
  8
M79
 62
     7
100
AcDbText
 10
321.121646
 20
17.727871
 40
4.2
  1
ｅ
 41
0.515873
  7
STANDARD
100
AcDbText
  0
TEXT
  5
59D
100
AcDbEntity
  8
M79
 62
     7
100
AcDbText
 10
323.421646
 20
17.727871
 40
4.2
  1
Ｓ
 41
0.515873
  7
STANDARD
100
AcDbText
  0
TEXT
  5
59E
100
AcDbEntity
  8
M79
 62
     7
100
AcDbText
 10
324.721645
 20
17.727871
 40
4.2
  1
ｏ
 41
0.515873
  7
STANDARD
100
AcDbText
  0
TEXT
  5
59F
100
AcDbEntity
  8
M79
 62
     7
100
AcDbText
 10
326.021646
 20
17.727871
 40
4.2
  1
ｌ
 41
0.515873
  7
STANDARD
100
AcDbText
  0
TEXT
  5
5A0
100
AcDbEntity
  8
M79
 62
     7
100
AcDbText
 10
327.321645
 20
17.727871
 40
4.2
  1
ｕ
 41
0.515873
  7
STANDARD
100
AcDbText
  0
TEXT
  5
5A1
100
AcDbEntity
  8
M79
 62
     7
100
AcDbText
 10
328.621646
 20
17.727871
 40
4.2
  1
ｔ
 41
0.515873
  7
STANDARD
100
AcDbText
  0
TEXT
  5
5A2
100
AcDbEntity
  8
M79
 62
     7
100
AcDbText
 10
329.921646
 20
17.727871
 40
4.2
  1
ｉ
 41
0.515873
  7
STANDARD
100
AcDbText
  0
TEXT
  5
5A3
100
AcDbEntity
  8
M79
 62
     7
100
AcDbText
 10
331.221645
 20
17.727871
 40
4.2
  1
ｏ
 41
0.515873
  7
STANDARD
100
AcDbText
  0
TEXT
  5
5A4
100
AcDbEntity
  8
M79
 62
     7
100
AcDbText
 10
332.521644
 20
17.727871
 40
4.2
  1
ｎ
 41
0.515873
  7
STANDARD
100
AcDbText
  0
TEXT
  5
5A5
100
AcDbEntity
  8
M79
 62
     7
100
AcDbText
 10
333.821643
 20
17.727871
 40
4.2
  1
ｓ
 41
0.515873
  7
STANDARD
100
AcDbText
  0
TEXT
  5
5A6
100
AcDbEntity
  8
M79
 62
     7
100
AcDbText
 10
335.121643
 20
17.727871
 40
4.2
  1
，
 41
0.515873
  7
STANDARD
100
AcDbText
  0
TEXT
  5
5A7
100
AcDbEntity
  8
M79
 62
     7
100
AcDbText
 10
336.121643
 20
17.727871
 40
4.2
  1
Ｉ
 41
0.515873
  7
STANDARD
100
AcDbText
  0
TEXT
  5
5A8
100
AcDbEntity
  8
M79
 62
     7
100
AcDbText
 10
337.421642
 20
17.727871
 40
4.2
  1
ｎ
 41
0.515873
  7
STANDARD
100
AcDbText
  0
TEXT
  5
5A9
100
AcDbEntity
  8
M79
 62
     7
100
AcDbText
 10
340.02164
 20
17.727871
 40
4.2
  1
．
 41
0.515873
  7
STANDARD
100
AcDbText
  0
TEXT
  5
5AA
100
AcDbEntity
  8
M79
 62
     7
100
AcDbText
 10
338.721641
 20
17.727871
 40
4.2
  1
ｃ
 41
0.515873
  7
STANDARD
100
AcDbText
  0
ENDSEC
  0
SECTION
  2
OBJECTS
  0
DICTIONARY
  5
C
100
AcDbDictionary
  3
ACAD_GROUP
350
D
  3
ACAD_MLINESTYLE
350
E
  0
DICTIONARY
  5
D
102
{ACAD_REACTORS
330
C
102
}
100
AcDbDictionary
  0
DICTIONARY
  5
E
102
{ACAD_REACTORS
330
C
102
}
100
AcDbDictionary
  3
STANDARD
350
13
  0
DICTIONARY
  5
4D
330
4C
100
AcDbDictionary
280
     1
281
     1
  3
ACAD_DIMASSOC
360
4E
  0
DIMASSOC
  5
4E
102
{ACAD_REACTORS
330
4D
102
}
330
4D
100
AcDbDimAssoc
330
4C
 90
        1
 70
     0
 71
     0
  1
AcDbOsnapPointRef
 72
     10
331
4F
 73
     2
 91
        0
 40
0.693692
 10
248.543472
 20
65.248817
 30
0.000000
 75
     0
  0
DICTIONARY
  5
54
330
53
100
AcDbDictionary
280
     1
281
     1
  3
ACAD_DIMASSOC
360
55
  0
DIMASSOC
  5
55
102
{ACAD_REACTORS
330
54
102
}
330
54
100
AcDbDimAssoc
330
53
 90
        1
 70
     0
 71
     0
  1
AcDbOsnapPointRef
 72
     10
331
56
 73
     2
 91
        0
 40
0.355587
 10
249.205582
 20
175.903641
 30
0.000000
 75
     0
  0
DICTIONARY
  5
58
330
57
100
AcDbDictionary
280
     1
281
     1
  3
ACAD_DIMASSOC
360
59
  0
DIMASSOC
  5
59
102
{ACAD_REACTORS
330
58
102
}
330
58
100
AcDbDimAssoc
330
57
 90
        1
 70
     0
 71
     0
  1
AcDbOsnapPointRef
 72
     10
331
5A
 73
     2
 91
        0
 40
0.641238
 10
249.205582
 20
192.849045
 30
0.000000
 75
     0
  0
DICTIONARY
  5
5D
330
5C
100
AcDbDictionary
280
     1
281
     1
  3
ACAD_DIMASSOC
360
5E
  0
DIMASSOC
  5
5E
102
{ACAD_REACTORS
330
5D
102
}
330
5D
100
AcDbDimAssoc
330
5C
 90
        1
 70
     0
 71
     0
  1
AcDbOsnapPointRef
 72
     10
331
5F
 73
     2
 91
        0
 40
6.201430
 10
258.304474
 20
230.873856
 30
0.000000
 75
     0
  0
DICTIONARY
  5
63
330
62
100
AcDbDictionary
280
     1
281
     1
  3
ACAD_DIMASSOC
360
64
  0
DIMASSOC
  5
64
102
{ACAD_REACTORS
330
63
102
}
330
63
100
AcDbDimAssoc
330
62
 90
        1
 70
     0
 71
     0
  1
AcDbOsnapPointRef
 72
     10
331
65
 73
     2
 91
        0
 40
0.508959
 10
230.746719
 20
68.407326
 30
0.000000
 75
     0
  0
DICTIONARY
  5
67
330
66
100
AcDbDictionary
280
     1
281
     1
  3
ACAD_DIMASSOC
360
68
  0
DIMASSOC
  5
68
102
{ACAD_REACTORS
330
67
102
}
330
67
100
AcDbDimAssoc
330
66
 90
        1
 70
     0
 71
     0
  1
AcDbOsnapPointRef
 72
     10
331
69
 73
     2
 91
        0
 40
0.692179
 10
211.369598
 20
71.564804
 30
0.000000
 75
     0
  0
MLINESTYLE
  5
13
102
{ACAD_REACTORS
330
E
102
}
100
AcDbMlineStyle
  2
STANDARD
 70
     0
  3

 62
     0
 51
90.0
 52
90.0
 71
     2
 49
0.5
 62
   256
  6
BYLAYER
 49
-0.5
 62
   256
  6
BYLAYER
  0
ENDSEC
  0
EOF
