  0
SECTION
  2
HEADER
  9
$ACADVER
  1
AC1015
  9
$INSBASE
 10
0.000000
 20
0.000000
 30
0.0
  9
$VIEWCTR
 10
7.531722
 20
4.5
  9
$VIEWSIZE
 40
9.0
  9
$SNAPMODE
 70
     0
  9
$SNAPUNIT
 10
1.0
 20
1.0
  9
$SNAPBASE
 10
0.0
 20
0.0
  9
$SNAPANG
 50
0.0
  9
$SNAPSTYLE
 70
     0
  9
$SNAPISOPAIR
 70
     0
  9
$GRIDMODE
 70
     0
  9
$GRIDUNIT
 10
0.0
 20
0.0
  9
$ORTHOMODE
 70
     0
  9
$REGENMODE
 70
     1
  9
$FILLMODE
 70
     1
  9
$QTEXTMODE
 70
     0
  9
$DRAGMODE
 70
     2
  9
$LTSCALE
  40
     1.000000
  9
$OSMODE
 70
     0
  9
$ATTMODE
 70
     1
  9
$TEXTSIZE
 40
0.2
  9
$TRACEWID
 40
0.05
  9
$TEXTSTYLE
  7
STANDARD
  9
$CELTYPE
  6
BYLAYER
  9
$CECOLOR
 62
   256
  9
$DIMSCALE
 40
1.0
  9
$DIMASZ
 40
0.18
  9
$DIMEXO
 40
0.0625
  9
$DIMDLI
 40
0.38
  9
$DIMRND
 40
0.0
  9
$DIMDLE
 40
0.0
  9
$DIMEXE
 40
0.18
  9
$DIMTP
 40
0.0
  9
$DIMTM
 40
0.0
  9
$DIMTXT
 40
0.18
  9
$DIMCEN
 40
0.09
  9
$DIMTSZ
 40
0.0
  9
$DIMADEC
 70
     0
  9
$DIMALTRND
 40
0.000000
  9
$DIMAZIN
 70
     0
  9
$DIMDSEP
 70
    46
  9
$DIMATFIT
 70
     3
  9
$DIMFRAC
 70
     0
  9
$DIMLDRBLK
  1

  9
$DIMLUNIT
 70
     2
  9
$DIMLWD
 70
   13
  9
$DIMLWE
 70
   13
  9
$DIMTMOVE
 70
     0
  9
$CELWEIGHT
370
    25
  9
$LWDISPLAY
290
    1
  9
$EXTNAMES
290
    1
  9
$DIMTOL
 70
     0
  9
$DIMLIM
 70
     0
  9
$DIMTIH
 70
     1
  9
$DIMTOH
 70
     1
  9
$DIMSE1
 70
     0
  9
$DIMSE2
 70
     0
  9
$DIMTAD
 70
     0
  9
$DIMZIN
 70
     0
  9
$DIMBLK
  1

  9
$LUNITS
 70
     2
  9
$LUPREC
 70
     4
  9
$AXISMODE
 70
     0
  9
$AXISUNIT
 10
0.0
 20
0.0
  9
$SKETCHINC
 40
0.1
  9
$FILLETRAD
 40
0.0
  9
$AUNITS
 70
     0
  9
$AUPREC
 70
     0
  9
$MENU
  1
ACAD
  9
$ELEVATION
 40
0.0
  9
$THICKNESS
 40
0.0
  9
$VIEWDIR
 10
0.0
 20
0.0
 30
1.0
  9
$LIMCHECK
 70
     0
  9
$BLIPMODE
 70
     1
  9
$CHAMFERA
 40
0.0
  9
$CHAMFERB
 40
0.0
  9
$FASTZOOM
 70
     1
  9
$SKPOLY
 70
     0
  9
$TDCREATE
 40
0000000.0000000000
  9
$TDUPDATE
 40
0000000.0000000000
  9
$TDINDWG
 40
0.0000000000
  9
$TDUSRTIMER
 40
0.0000000000
  9
$USRTIMER
 70
     1
  9
$ANGBASE
 50
0.0
  9
$ANGDIR
 70
     0
  9
$PDMODE
 70
     0
  9
$PDSIZE
 40
0.0
  9
$PLINEWID
 40
0.0
  9
$COORDS
 70
     0
  9
$USERI1
 70
     0
  9
$USERI2
 70
     0
  9
$USERI3
 70
     0
  9
$USERI4
 70
     0
  9
$USERI5
 70
     0
  9
$USERR1
 40
0.0
  9
$USERR2
 40
0.0
  9
$USERR3
 40
0.0
  9
$USERR4
 40
0.0
  9
$USERR5
 40
0.0
  9
$CLAYER
  8
M0
  9
$EXTMIN
 10
0.0
 20
0.0
  9
$EXTMAX
 10
420.0
 20
297.0
  9
$LIMMIN
 10
0.0
 20
0.0
  9
$LIMMAX
 10
420.0
 20
297.0
  9
$HANDSEED
  5
1E3
  0
ENDSEC
  0
SECTION
  2
CLASSES
  0
CLASS
  1
DIMASSOC
  2
AcDbDimAssoc
  3
"AcDbDimAssoc|Product Desc:     AcDim ARX App For Dimension|Company:          Autodesk, Inc.|WEB Address:      www.autodesk.com"
 90
        0
280
     0
281
     0
  0
ENDSEC
  0
SECTION
  2
TABLES
  0
TABLE
  2
VPORT
  5
8
100
AcDbSymbolTable
 70
     2
  0
VPORT
  5
14
100
AcDbSymbolTableRecord
100
AcDbViewportTableRecord
  2
*ACTIVE
 70
     0
 10
0.0
 20
0.0
 11
1.0
 21
1.0
 12
484.0
 22
297.0
 13
0.0
 23
0.0
 14
1.0
 24
1.0
 15
0.0
 25
0.0
 16
0.0
 26
0.0
 36
1.0
 17
0.0
 27
0.0
 37
0.0
 40
594.0
 41
2.0
 42
50.0
 43
0.0
 44
0.0
 50
0.0
 51
0.0
 71
     0
 72
   100
 73
     1
 74
     1
 75
     0
 76
     0
 77
     0
 78
     0
  0
ENDTAB
  0
TABLE
  2
LTYPE
  5
5
100
AcDbSymbolTable
 70
     5
  0
LTYPE
  5
15
100
AcDbSymbolTableRecord
100
AcDbLinetypeTableRecord
  2
BYBLOCK
 70
     0
  3

 72
    65
 73
     0
 40
0.0
  0
LTYPE
  5
16
100
AcDbSymbolTableRecord
100
AcDbLinetypeTableRecord
  2
BYLAYER
 70
     0
  3

 72
    65
 73
     0
 40
0.0
  0
LTYPE
  5
17
100
AcDbSymbolTableRecord
100
AcDbLinetypeTableRecord
  2
CONTINUOUS
 70
    64
  3
Solid line
 72
    65
 73
     0
 40
0.0
  0
LTYPE
  5
18
100
AcDbSymbolTableRecord
100
AcDbLinetypeTableRecord
  2
DASHED
 70
    64
  3
__ __ __ __ __ __ __ __ __ __ __ __ __ __ __ __
 72
    65
 73
     2
 40
0.75
 49
0.5
 74
     0
 49
-0.25
 74
     0
  0
LTYPE
  5
19
100
AcDbSymbolTableRecord
100
AcDbLinetypeTableRecord
  2
DASHDOT
 70
    64
  3
__ . __ . __ . __ . __ . __ . __ . __ . __ . __
 72
    65
 73
     4
 40
1.0
 49
0.5
 74
     0
 49
-0.25
 74
     0
 49
0.0
 74
     0
 49
-0.25
 74
     0
  0
LTYPE
  5
1A
100
AcDbSymbolTableRecord
100
AcDbLinetypeTableRecord
  2
DIVIDE
 70
    64
  3
____ . . ____ . . ____ . . ____ . . ____ . . __
 72
    65
 73
     6
 40
1.25
 49
0.5
 74
     0
 49
-0.25
 74
     0
 49
0.0
 74
     0
 49
-0.25
 74
     0
 49
0.0
 74
     0
 49
-0.25
 74
     0
  0
LTYPE
  5
1B
100
AcDbSymbolTableRecord
100
AcDbLinetypeTableRecord
  2
DOT
 70
    64
  3
. . . . . . . . . . . . . . . . . . . . . . . .
 72
    65
 73
     2
 40
0.25
 49
0.0
 74
     0
 49
-0.25
 74
     0
  0
ENDTAB
  0
TABLE
  2
LAYER
  5
2
100
AcDbSymbolTable
 70
   102
  0
LAYER
  5
F
100
AcDbSymbolTableRecord
100
AcDbLayerTableRecord
  2
0
 70
     0
 62
     7
  6
CONTINUOUS
370
     -3
390
F
  0
LAYER
  5
1C
100
AcDbSymbolTableRecord
100
AcDbLayerTableRecord
  2
M0
 70
     0
 62
     3
  6
CONTINUOUS
370
     -3
390
F
  0
LAYER
  5
1D
100
AcDbSymbolTableRecord
100
AcDbLayerTableRecord
  2
M69
 70
     0
 62
     7
  6
CONTINUOUS
370
     -3
390
F
  0
LAYER
  5
1E
100
AcDbSymbolTableRecord
100
AcDbLayerTableRecord
  2
M71
 70
     0
 62
     7
  6
CONTINUOUS
370
     -3
390
F
  0
LAYER
  5
1F
100
AcDbSymbolTableRecord
100
AcDbLayerTableRecord
  2
M73
 70
     0
 62
     7
  6
CONTINUOUS
370
     -3
390
F
  0
LAYER
  5
20
100
AcDbSymbolTableRecord
100
AcDbLayerTableRecord
  2
M74
 70
     0
 62
     7
  6
CONTINUOUS
370
     -3
390
F
  0
LAYER
  5
21
100
AcDbSymbolTableRecord
100
AcDbLayerTableRecord
  2
M75
 70
     0
 62
     7
  6
CONTINUOUS
370
     -3
390
F
  0
LAYER
  5
22
100
AcDbSymbolTableRecord
100
AcDbLayerTableRecord
  2
M79
 70
     0
 62
     7
  6
CONTINUOUS
370
     -3
390
F
  0
LAYER
  5
23
100
AcDbSymbolTableRecord
100
AcDbLayerTableRecord
  2
DD0
 70
     0
 62
     7
  6
CONTINUOUS
370
     -3
390
F
  0
ENDTAB
  0
TABLE
  2
STYLE
  5
3
100
AcDbSymbolTable
 70
     2
  0
STYLE
  5
10
100
AcDbSymbolTableRecord
100
AcDbTextStyleTableRecord
  2
STANDARD
 70
     0
 40
0.0
 41
1.0
 50
0.0
 71
     0
 42
0.2
  3
txt
  4
BIGFONT
  0
ENDTAB
  0
TABLE
  2
VIEW
  5
6
100
AcDbSymbolTable
 70
     0
  0
ENDTAB
  0
TABLE
  2
UCS
  5
7
100
AcDbSymbolTable
 70
     0
  0
ENDTAB
  0
TABLE
  2
APPID
  5
9
100
AcDbSymbolTable
 70
     1
  0
APPID
  5
11
100
AcDbSymbolTableRecord
100
AcDbRegAppTableRecord
  2
ACAD
 70
     0
  0
ENDTAB
  0
TABLE
  2
DIMSTYLE
  5
A
100
AcDbSymbolTable
 70
     2
100
AcDbDimStyleTable
 71
     1
  0
DIMSTYLE
105
60
100
AcDbSymbolTableRecord
100
AcDbDimStyleTableRecord
  2
STANDARD
 70
     0
  3

  4

  5

  6
_OPEN
  7
_OPEN
 40
1.0
 41
3.0
 42
0.0
 43
8.0
 44
1.5
 45
0.0
 46
0.0
 47
0.0
 48
0.0
140
3.2
141
0.09
142
0.0
143
0.03937
144
1.0
145
0.0
146
1.0
147
1.0
148
0.000000
 71
     0
 72
     0
 73
     1
 74
     1
 75
     0
 76
     0
 77
     3
 78
     8
170
     0
171
     2
172
     0
173
     1
174
     0
175
     0
176
     0
177
     0
178
     0
270
     2
271
     2
272
     4
273
     2
274
     2
340
10
275
     0
278
    46
280
     0
281
     0
282
     0
283
     1
284
     0
285
     0
286
     0
287
     3
288
     0
371
   13
372
   13
  0
DIMSTYLE
105
61
100
AcDbSymbolTableRecord
100
AcDbDimStyleTableRecord
  2
LEADSTYL
 70
     0
  3

  4

  5

  6
_OPEN
  7
_OPEN
 40
1.0
 41
3.0
 42
0.0625
 43
0.38
 44
0.18
 45
0.0
 46
0.0
 47
0.0
 48
0.0
140
3.2
141
0.09
142
0.0
143
25.4
144
1.0
145
0.0
146
1.0
147
1.0
 71
     0
 72
     0
 73
     1
 74
     1
 75
     0
 76
     0
 77
     0
 78
     0
170
     0
171
     2
172
     0
173
     1
174
     0
175
     0
176
     0
177
     0
178
     0
270
     2
271
     4
272
     4
273
     2
274
     2
340
10
275
     0
280
     0
281
     0
282
     0
283
     1
284
     0
285
     0
286
     0
287
     3
288
     0
  0
ENDTAB
  0
TABLE
  2
BLOCK_RECORD
  5
1
100
AcDbSymbolTable
 70
     7
  0
BLOCK_RECORD
  5
24
100
AcDbSymbolTableRecord
100
AcDbBlockTableRecord
  2
*MODEL_SPACE
  0
BLOCK_RECORD
  5
27
100
AcDbSymbolTableRecord
100
AcDbBlockTableRecord
  2
*PAPER_SPACE
  0
BLOCK_RECORD
  5
2A
100
AcDbSymbolTableRecord
100
AcDbBlockTableRecord
  2
_NONE
  0
BLOCK_RECORD
  5
2E
100
AcDbSymbolTableRecord
100
AcDbBlockTableRecord
  2
_OPEN
  0
BLOCK_RECORD
  5
34
100
AcDbSymbolTableRecord
100
AcDbBlockTableRecord
  2
_CLOSED
  0
BLOCK_RECORD
  5
3B
100
AcDbSymbolTableRecord
100
AcDbBlockTableRecord
  2
_ORIGIN
  0
BLOCK_RECORD
  5
40
100
AcDbSymbolTableRecord
100
AcDbBlockTableRecord
  2
_DOT
  0
BLOCK_RECORD
  5
48
100
AcDbSymbolTableRecord
100
AcDbBlockTableRecord
  2
_OBLIQUE
  0
BLOCK_RECORD
  5
4C
100
AcDbSymbolTableRecord
100
AcDbBlockTableRecord
  2
DIMS0
  0
ENDTAB
  0
ENDSEC
  0
SECTION
  2
BLOCKS
  0
BLOCK
  5
25
100
AcDbEntity
  8
0
100
AcDbBlockBegin
  2
*MODEL_SPACE
 70
     0
 10
0.0
 20
0.0
 30
0.0
  3
*MODEL_SPACE
  1

  0
ENDBLK
  5
26
100
AcDbEntity
  8
0
100
AcDbBlockEnd
  0
BLOCK
  5
28
100
AcDbEntity
 67
     1
  8
0
100
AcDbBlockBegin
  2
*PAPER_SPACE
 70
     0
 10
0.0
 20
0.0
 30
0.0
  3
*PAPER_SPACE
  1

  0
ENDBLK
  5
29
100
AcDbEntity
 67
     1
  8
0
100
AcDbBlockEnd
  0
BLOCK
  5
2B
100
AcDbEntity
  8
0
100
AcDbBlockBegin
  2
_NONE
 70
     0
 10
0.0
 20
0.0
  0
CIRCLE
  5
2C
100
AcDbEntity
  8
0
 62
     0
370
13
100
AcDbCircle
 10
0.0
 20
0.0
 40
0.25
  0
ENDBLK
  5
2D
100
AcDbEntity
  8
0
100
AcDbBlockEnd
  0
BLOCK
  5
2F
100
AcDbEntity
  8
0
100
AcDbBlockBegin
  2
_OPEN
 70
     0
 10
0.0
 20
0.0
  0
LINE
  5
30
100
AcDbEntity
  8
0
 62
     0
370
13
100
AcDbLine
 10
-0.965926
 20
0.258819
 11
0.0
 21
0.0
  0
LINE
  5
31
100
AcDbEntity
  8
0
 62
     0
370
13
100
AcDbLine
 10
0.0
 20
0.0
 11
-0.965926
 21
-0.258819
  0
LINE
  5
32
100
AcDbEntity
  8
0
 62
     0
370
13
100
AcDbLine
 10
0.0
 20
0.0
 11
-1.0
 21
0.0
  0
ENDBLK
  5
33
100
AcDbEntity
  8
0
100
AcDbBlockEnd
  0
BLOCK
  5
35
100
AcDbEntity
  8
0
100
AcDbBlockBegin
  2
_CLOSED
 70
     0
 10
0.0
 20
0.0
  0
LINE
  5
36
100
AcDbEntity
  8
0
 62
     0
370
13
100
AcDbLine
 10
-0.965926
 20
0.258819
 11
0.0
 21
0.0
  0
LINE
  5
37
100
AcDbEntity
  8
0
 62
     0
370
13
100
AcDbLine
 10
0.0
 20
0.0
 11
-0.965926
 21
-0.258819
  0
LINE
  5
38
100
AcDbEntity
  8
0
 62
     0
370
13
100
AcDbLine
 10
-0.965926
 20
0.258819
 11
-0.965926
 21
-0.258819
  0
LINE
  5
39
100
AcDbEntity
  8
0
 62
     0
370
13
100
AcDbLine
 10
0.0
 20
0.0
 11
-1.0
 21
0.0
  0
ENDBLK
  5
3A
100
AcDbEntity
  8
0
100
AcDbBlockEnd
  0
BLOCK
  5
3C
100
AcDbEntity
  8
0
100
AcDbBlockBegin
  2
_ORIGIN
 70
     0
 10
0.0
 20
0.0
  0
CIRCLE
  5
3D
100
AcDbEntity
  8
0
 62
     0
370
13
100
AcDbCircle
 10
0.0
 20
0.0
 40
0.5
  0
LINE
  5
3E
100
AcDbEntity
  8
0
 62
     0
370
13
100
AcDbLine
 10
0.0
 20
0.0
 11
-1.0
 21
0.0
  0
ENDBLK
  5
3F
100
AcDbEntity
  8
0
100
AcDbBlockEnd
  0
BLOCK
  5
41
100
AcDbEntity
  8
0
100
AcDbBlockBegin
  2
_DOT
 70
     0
 10
0.0
 20
0.0
  0
POLYLINE
  5
42
100
AcDbEntity
  8
0
 62
     0
100
AcDb2dPolyline
 66
     1
 70
     1
 40
0.5
 41
0.5
  0
VERTEX
  5
43
100
AcDbEntity
  8
0
 62
     0
100
AcDbVertex
100
AcDb2dVertex
 10
-0.25
 20
0.0
 42
1.0
  0
VERTEX
  5
44
100
AcDbEntity
  8
0
 62
     0
100
AcDbVertex
100
AcDb2dVertex
 10
0.25
 20
0.0
 42
1.0
  0
SEQEND
  5
45
100
AcDbEntity
  8
0
 62
     0
  0
LINE
  5
46
100
AcDbEntity
  8
0
 62
     0
370
13
100
AcDbLine
 10
-0.5
 20
0.0
 11
-1.0
 21
0.0
  0
ENDBLK
  5
47
100
AcDbEntity
  8
0
100
AcDbBlockEnd
  0
BLOCK
  5
49
100
AcDbEntity
  8
0
100
AcDbBlockBegin
  2
_OBLIQUE
 70
     0
 10
0.0
 20
0.0
  0
LINE
  5
4A
100
AcDbEntity
  8
0
 62
     0
370
13
100
AcDbLine
 10
-0.353553
 20
-0.353553
 11
0.353553
 21
0.353553
  0
ENDBLK
  5
4B
100
AcDbEntity
  8
0
100
AcDbBlockEnd
  0
BLOCK
  5
4D
100
AcDbEntity
  8
DD0
100
AcDbBlockBegin
  2
DIMS0
 70
     0
 10
0.0
 20
0.0
  0
TEXT
  5
4E
100
AcDbEntity
  8
DD0
100
AcDbText
 10
143.308398
 20
188.983882
 40
3.2
  1
　
 50
323.559913
 41
0.833333
  7
STANDARD
100
AcDbText
  0
ENDBLK
  5
4F
100
AcDbEntity
  8
DD0
100
AcDbBlockEnd
  0
ENDSEC
  0
SECTION
  2
ENTITIES
  0
INSERT
  5
50
100
AcDbEntity
  8
DD0
100
AcDbBlockReference
  2
DIMS0
 10
0.0
 20
0.0
  0
LEADER
  5
51
102
{ACAD_XDICTIONARY
360
52
102
}
102
{ACAD_REACTORS
330
53
102
}
330
1F
100
AcDbEntity
  8
DD0
100
AcDbLeader
  3
LEADSTYL
 76
     3
 10
131.562546
 20
195.42952
 10
112.82547
 20
177.551254
 10
78.225464
 20
177.551254
340
55
 77
     7
1001
ACAD
1000
DSTYLE
1002
{
1070
   341
1005
2E
1070
   372
1070
   13
1070
   371
1070
   13
1002
}
  0
TEXT
  5
55
100
AcDbEntity
  8
DD0
100
AcDbText
 10
81.863801
 20
178.551254
 40
4.0
  1
凍結防止ヒータ
 41
0.833333
  7
STANDARD
100
AcDbText
  0
LEADER
  5
56
102
{ACAD_XDICTIONARY
360
57
102
}
102
{ACAD_REACTORS
330
58
102
}
330
1F
100
AcDbEntity
  8
DD0
100
AcDbLeader
  3
LEADSTYL
 76
     2
 10
112.621803
 20
195.42952
 10
112.825462
 20
177.551239
 77
     7
1001
ACAD
1000
DSTYLE
1002
{
1070
   341
1005
2E
1070
   372
1070
   13
1070
   371
1070
   13
1002
}
  0
LEADER
  5
5A
102
{ACAD_XDICTIONARY
360
5B
102
}
102
{ACAD_REACTORS
330
5C
102
}
330
1F
100
AcDbEntity
  8
DD0
100
AcDbLeader
  3
LEADSTYL
 76
     3
 10
74.123749
 20
208.69223
 10
76.369652
 20
220.727966
 10
158.96965
 20
220.727966
340
5E
 77
     7
1001
ACAD
1000
DSTYLE
1002
{
1070
   341
1005
2E
1070
   372
1070
   13
1070
   371
1070
   13
1002
}
  0
TEXT
  5
5E
100
AcDbEntity
  8
DD0
100
AcDbText
 10
80.007989
 20
221.727966
 40
4.0
  1
外気サーモ
 41
0.833333
  7
STANDARD
100
AcDbText
  0
TEXT
  5
5F
100
AcDbEntity
  8
DD0
100
AcDbText
 10
80.007989
 20
215.727966
 40
4.0
  1
（ＯＮ：５±３℃　ＯＦＦ：１３±５℃）
 41
0.833333
  7
STANDARD
100
AcDbText
  0
TEXT
  5
62
100
AcDbEntity
  8
M0
 62
     7
100
AcDbText
 10
351.604892
 20
28.178143
 40
4.5
  1
ＲＨＫ－Ｔ５６ＡＫ回路・配線図
 41
0.416667
  7
STANDARD
100
AcDbText
  0
LINE
  5
63
100
AcDbEntity
  8
M0
  6
CONTINUOUS
370
13
100
AcDbLine
 10
243.603694
 20
64.552206
 11
255.603694
 21
64.552206
  0
LINE
  5
64
100
AcDbEntity
  8
M0
  6
CONTINUOUS
370
13
100
AcDbLine
 10
361.120181
 20
56.552206
 11
243.603694
 21
56.552206
  0
LINE
  5
65
100
AcDbEntity
  8
M0
  6
DASHED
370
13
100
AcDbLine
 10
267.433794
 20
59.292083
 11
251.549474
 21
59.292083
  0
TEXT
  5
66
100
AcDbEntity
  8
M0
100
AcDbText
 10
243.744835
 20
65.352199
 40
4.0
  1
注　記
 41
0.833333
  7
STANDARD
100
AcDbText
  0
TEXT
  5
67
100
AcDbEntity
  8
M0
100
AcDbText
 10
243.903689
 20
57.352191
 40
4.0
  1
１．　　　　　　配線は現地工事になります。
 41
0.75
  7
STANDARD
100
AcDbText
  0
LINE
  5
68
100
AcDbEntity
  8
M0
  6
CONTINUOUS
370
13
100
AcDbLine
 10
223.020933
 20
176.896313
 11
201.681702
 21
176.896313
  0
LINE
  5
69
100
AcDbEntity
  8
M0
  6
CONTINUOUS
370
13
100
AcDbLine
 10
201.681702
 20
167.420791
 11
201.681702
 21
176.896313
  0
LINE
  5
6A
100
AcDbEntity
  8
M0
  6
CONTINUOUS
370
13
100
AcDbLine
 10
204.455049
 20
173.579883
 11
204.455049
 21
170.737224
  0
LINE
  5
6B
100
AcDbEntity
  8
M0
  6
CONTINUOUS
370
13
100
AcDbLine
 10
209.719228
 20
173.579883
 11
209.719228
 21
170.737224
  0
LINE
  5
6C
100
AcDbEntity
  8
M0
  6
CONTINUOUS
370
13
100
AcDbLine
 10
201.681702
 20
167.420791
 11
223.020933
 21
167.420791
  0
LINE
  5
6D
100
AcDbEntity
  8
M0
  6
CONTINUOUS
370
13
100
AcDbLine
 10
214.983407
 20
173.579883
 11
214.983407
 21
170.737224
  0
LINE
  5
6E
100
AcDbEntity
  8
M0
  6
CONTINUOUS
370
13
100
AcDbLine
 10
220.247587
 20
173.579883
 11
220.247587
 21
170.737224
  0
LINE
  5
6F
100
AcDbEntity
  8
M0
  6
CONTINUOUS
370
13
100
AcDbLine
 10
223.020933
 20
176.896316
 11
223.020933
 21
167.420793
  0
LINE
  5
70
100
AcDbEntity
  8
M0
  6
CONTINUOUS
370
13
100
AcDbLine
 10
204.45351
 20
198.180767
 11
204.45351
 21
175.474986
  0
LINE
  5
71
100
AcDbEntity
  8
M0
  6
CONTINUOUS
370
13
100
AcDbLine
 10
209.717689
 20
175.474986
 11
209.717689
 21
203.444946
  0
LINE
  5
72
100
AcDbEntity
  8
M0
  6
CONTINUOUS
370
13
100
AcDbLine
 10
209.717689
 20
203.444946
 11
171.453013
 21
203.444946
  0
LINE
  5
73
100
AcDbEntity
  8
M0
  6
CONTINUOUS
370
13
100
AcDbLine
 10
171.453013
 20
198.180767
 11
204.45351
 21
198.180767
  0
LINE
  5
74
100
AcDbEntity
  8
M0
  6
DASHED
370
13
100
AcDbLine
 10
204.455049
 20
168.842119
 11
204.452348
 21
130.607058
  0
LINE
  5
75
100
AcDbEntity
  8
M0
  6
DASHED
370
13
100
AcDbLine
 10
209.719228
 20
168.842119
 11
209.719228
 21
130.607484
  0
LINE
  5
76
100
AcDbEntity
  8
M0
  6
DASHED
370
13
100
AcDbLine
 10
214.983407
 20
168.842119
 11
214.980706
 21
130.606314
  0
LINE
  5
77
100
AcDbEntity
  8
M0
  6
DASHED
370
13
100
AcDbLine
 10
220.247587
 20
168.842119
 11
220.247587
 21
130.607484
  0
LINE
  5
78
100
AcDbEntity
  8
M0
  6
CONTINUOUS
370
13
100
AcDbLine
 10
204.45351
 20
175.474986
 11
207.546398
 21
185.407028
  0
LINE
  5
79
100
AcDbEntity
  8
M0
  6
CONTINUOUS
370
13
100
AcDbLine
 10
209.717689
 20
175.474986
 11
211.171285
 21
180.142848
  0
LINE
  5
7A
100
AcDbEntity
  8
M0
  6
CONTINUOUS
370
13
100
AcDbLine
 10
214.981868
 20
185.407028
 11
214.981868
 21
175.474986
  0
LINE
  5
7B
100
AcDbEntity
  8
M0
  6
CONTINUOUS
370
13
100
AcDbLine
 10
220.246047
 20
175.474986
 11
220.246047
 21
180.142848
  0
LINE
  5
7C
100
AcDbEntity
  8
M0
  6
CONTINUOUS
370
13
100
AcDbLine
 10
211.171285
 20
180.142848
 11
214.034316
 21
180.142848
  0
LINE
  5
7D
100
AcDbEntity
  8
M0
  6
CONTINUOUS
370
13
100
AcDbLine
 10
214.981868
 20
185.407028
 11
210.665241
 21
185.407028
  0
LINE
  5
7E
100
AcDbEntity
  8
M0
  6
CONTINUOUS
370
13
100
AcDbLine
 10
208.770137
 20
185.407028
 11
207.546398
 21
185.407028
  0
LINE
  5
7F
100
AcDbEntity
  8
M0
  6
CONTINUOUS
370
13
100
AcDbLine
 10
215.92942
 20
180.142848
 11
220.246047
 21
180.142848
  0
CIRCLE
  5
80
100
AcDbEntity
  8
M0
  6
CONTINUOUS
370
13
100
AcDbCircle
 10
209.719228
 20
169.789671
 40
0.947552
  0
CIRCLE
  5
81
100
AcDbEntity
  8
M0
  6
CONTINUOUS
370
13
100
AcDbCircle
 10
204.45351
 20
174.527434
 40
0.947552
  0
CIRCLE
  5
82
100
AcDbEntity
  8
M0
  6
CONTINUOUS
370
13
100
AcDbCircle
 10
209.717689
 20
174.527434
 40
0.947552
  0
CIRCLE
  5
83
100
AcDbEntity
  8
M0
  6
CONTINUOUS
370
13
100
AcDbCircle
 10
204.455049
 20
169.789671
 40
0.947552
  0
CIRCLE
  5
84
100
AcDbEntity
  8
M0
  6
CONTINUOUS
370
13
100
AcDbCircle
 10
214.983407
 20
169.789671
 40
0.947552
  0
CIRCLE
  5
85
100
AcDbEntity
  8
M0
  6
CONTINUOUS
370
13
100
AcDbCircle
 10
214.981868
 20
174.527434
 40
0.947552
  0
CIRCLE
  5
86
100
AcDbEntity
  8
M0
  6
CONTINUOUS
370
13
100
AcDbCircle
 10
220.247587
 20
169.789671
 40
0.947552
  0
CIRCLE
  5
87
100
AcDbEntity
  8
M0
  6
CONTINUOUS
370
13
100
AcDbCircle
 10
220.246047
 20
174.527434
 40
0.947552
  0
ARC
  5
88
100
AcDbEntity
  8
M0
  6
CONTINUOUS
370
13
100
AcDbCircle
 10
209.717689
 20
185.407028
 40
0.947552
100
AcDbArc
 50
0.0
 51
180.0
  0
ARC
  5
89
100
AcDbEntity
  8
M0
  6
CONTINUOUS
370
13
100
AcDbCircle
 10
214.981868
 20
180.142848
 40
0.947552
100
AcDbArc
 50
0.0
 51
180.0
  0
TEXT
  5
8A
100
AcDbEntity
  8
M0
100
AcDbText
 10
205.092878
 20
163.643323
 40
3.158507
  1
茶
 41
0.833333
  7
STANDARD
100
AcDbText
  0
TEXT
  5
8B
100
AcDbEntity
  8
M0
100
AcDbText
 10
210.679609
 20
163.643323
 40
3.158507
  1
赤
 41
0.833333
  7
STANDARD
100
AcDbText
  0
TEXT
  5
8C
100
AcDbEntity
  8
M0
100
AcDbText
 10
215.678236
 20
163.643323
 40
3.158507
  1
茶
 41
0.833333
  7
STANDARD
100
AcDbText
  0
TEXT
  5
8D
100
AcDbEntity
  8
M0
100
AcDbText
 10
220.872908
 20
163.643323
 40
3.158507
  1
赤
 41
0.833333
  7
STANDARD
100
AcDbText
  0
TEXT
  5
8E
100
AcDbEntity
  8
M0
100
AcDbText
 10
205.813051
 20
122.318163
 40
5.6
  1
単
 41
0.619048
  7
STANDARD
100
AcDbText
  0
TEXT
  5
8F
100
AcDbEntity
  8
M0
100
AcDbText
 10
205.813051
 20
114.691496
 40
5.6
  1
相
 41
0.619048
  7
STANDARD
100
AcDbText
  0
TEXT
  5
90
100
AcDbEntity
  8
M0
100
AcDbText
 10
205.813051
 20
107.064829
 40
5.6
  1
２
 41
0.619048
  7
STANDARD
100
AcDbText
  0
TEXT
  5
91
100
AcDbEntity
  8
M0
100
AcDbText
 10
205.813051
 20
99.438163
 40
5.6
  1
０
 41
0.619048
  7
STANDARD
100
AcDbText
  0
TEXT
  5
92
100
AcDbEntity
  8
M0
100
AcDbText
 10
205.813051
 20
91.811496
 40
5.6
  1
０
 41
0.619048
  7
STANDARD
100
AcDbText
  0
TEXT
  5
93
100
AcDbEntity
  8
M0
100
AcDbText
 10
205.813051
 20
84.18483
 40
5.6
  1
Ｖ
 41
0.619048
  7
STANDARD
100
AcDbText
  0
TEXT
  5
94
100
AcDbEntity
  8
M0
100
AcDbText
 10
205.813051
 20
76.558163
 40
5.6
  1
電
 41
0.619048
  7
STANDARD
100
AcDbText
  0
TEXT
  5
95
100
AcDbEntity
  8
M0
100
AcDbText
 10
205.813051
 20
68.931497
 40
5.6
  1
源
 41
0.619048
  7
STANDARD
100
AcDbText
  0
TEXT
  5
96
100
AcDbEntity
  8
M0
100
AcDbText
 10
215.917726
 20
122.318163
 40
5.6
  1
連
 41
0.619048
  7
STANDARD
100
AcDbText
  0
TEXT
  5
97
100
AcDbEntity
  8
M0
100
AcDbText
 10
215.917726
 20
114.691496
 40
5.6
  1
結
 41
0.619048
  7
STANDARD
100
AcDbText
  0
TEXT
  5
98
100
AcDbEntity
  8
M0
100
AcDbText
 10
215.917726
 20
107.064829
 40
5.6
  1
ユ
 41
0.619048
  7
STANDARD
100
AcDbText
  0
TEXT
  5
99
100
AcDbEntity
  8
M0
100
AcDbText
 10
215.917726
 20
99.438163
 40
5.6
  1
ニ
 41
0.619048
  7
STANDARD
100
AcDbText
  0
TEXT
  5
9A
100
AcDbEntity
  8
M0
100
AcDbText
 10
215.917726
 20
91.811496
 40
5.6
  1
ッ
 41
0.619048
  7
STANDARD
100
AcDbText
  0
TEXT
  5
9B
100
AcDbEntity
  8
M0
100
AcDbText
 10
215.917726
 20
84.18483
 40
5.6
  1
ト
 41
0.619048
  7
STANDARD
100
AcDbText
  0
TEXT
  5
9C
100
AcDbEntity
  8
M0
100
AcDbText
 10
215.917726
 20
76.558163
 40
5.6
  1
へ
 41
0.619048
  7
STANDARD
100
AcDbText
  0
LINE
  5
9D
100
AcDbEntity
  8
M0
  6
CONTINUOUS
370
13
100
AcDbLine
 10
171.453013
 20
196.075095
 11
164.87279
 21
196.075095
  0
LINE
  5
9E
100
AcDbEntity
  8
M0
  6
CONTINUOUS
370
13
100
AcDbLine
 10
168.162902
 20
196.075095
 11
168.162902
 21
205.550618
  0
LINE
  5
9F
100
AcDbEntity
  8
M0
  6
CONTINUOUS
370
13
100
AcDbLine
 10
164.87279
 20
205.550618
 11
164.87279
 21
196.075095
  0
LINE
  5
A0
100
AcDbEntity
  8
M0
  6
CONTINUOUS
370
13
100
AcDbLine
 10
171.453013
 20
196.075095
 11
171.453013
 21
205.550618
  0
LINE
  5
A1
100
AcDbEntity
  8
M0
  6
CONTINUOUS
370
13
100
AcDbLine
 10
171.453013
 20
205.550618
 11
164.87279
 21
205.550618
  0
LINE
  5
A2
100
AcDbEntity
  8
M0
  6
CONTINUOUS
370
13
100
AcDbLine
 10
133.184052
 20
195.942325
 11
134.719408
 21
198.601641
  0
LINE
  5
A3
100
AcDbEntity
  8
M0
  6
CONTINUOUS
370
13
100
AcDbLine
 10
63.788751
 20
203.444946
 11
68.394994
 21
203.444946
  0
LINE
  5
A4
100
AcDbEntity
  8
M0
  6
CONTINUOUS
370
13
100
AcDbLine
 10
130.113338
 20
195.942325
 11
131.648695
 21
198.601641
  0
LINE
  5
A5
100
AcDbEntity
  8
M0
  6
CONTINUOUS
370
13
100
AcDbLine
 10
89.175288
 20
195.419211
 11
89.175288
 21
204.894733
  0
LINE
  5
A6
100
AcDbEntity
  8
M0
  6
CONTINUOUS
370
13
100
AcDbLine
 10
106.987465
 20
195.42952
 11
106.987465
 21
199.114446
  0
LINE
  5
A7
100
AcDbEntity
  8
M0
  6
CONTINUOUS
370
13
100
AcDbLine
 10
138.5578
 20
197.271983
 11
137.790122
 21
198.601641
  0
LINE
  5
A8
100
AcDbEntity
  8
M0
  6
CONTINUOUS
370
13
100
AcDbLine
 10
129.34566
 20
197.271983
 11
130.113338
 21
195.942325
  0
LINE
  5
54
102
{ACAD_REACTORS
330
53
102
}
330
1F
100
AcDbEntity
  8
M0
  6
CONTINUOUS
370
13
100
AcDbLine
 10
139.734089
 20
195.42952
 11
128.108202
 21
195.42952
  0
LINE
  5
A9
100
AcDbEntity
  8
M0
  6
CONTINUOUS
370
13
100
AcDbLine
 10
128.108202
 20
199.114446
 11
139.734089
 21
199.114446
  0
LINE
  5
AA
100
AcDbEntity
  8
M0
  6
CONTINUOUS
370
13
100
AcDbLine
 10
139.734089
 20
195.42952
 11
139.734089
 21
199.114446
  0
LINE
  5
AB
100
AcDbEntity
  8
M0
  6
CONTINUOUS
370
13
100
AcDbLine
 10
136.254765
 20
195.942325
 11
134.719408
 21
198.601641
  0
LINE
  5
AC
100
AcDbEntity
  8
M0
  6
CONTINUOUS
370
13
100
AcDbLine
 10
136.254765
 20
195.942325
 11
137.790122
 21
198.601641
  0
LINE
  5
AD
100
AcDbEntity
  8
M0
  6
CONTINUOUS
370
13
100
AcDbLine
 10
92.4654
 20
195.419211
 11
92.4654
 21
204.894733
  0
LINE
  5
AE
100
AcDbEntity
  8
M0
  6
CONTINUOUS
370
13
100
AcDbLine
 10
128.108202
 20
195.42952
 11
128.108202
 21
199.114446
  0
LINE
  5
AF
100
AcDbEntity
  8
M0
  6
CONTINUOUS
370
13
100
AcDbLine
 10
63.788751
 20
203.444946
 11
63.788751
 21
197.271983
  0
LINE
  5
B0
100
AcDbEntity
  8
M0
  6
CONTINUOUS
370
13
100
AcDbLine
 10
133.184052
 20
195.942325
 11
131.648695
 21
198.601641
  0
LINE
  5
B1
100
AcDbEntity
  8
M0
  6
CONTINUOUS
370
13
100
AcDbLine
 10
129.34566
 20
197.271983
 11
116.876249
 21
197.271983
  0
LINE
  5
B2
100
AcDbEntity
  8
M0
  6
CONTINUOUS
370
13
100
AcDbLine
 10
112.063314
 20
195.942325
 11
110.527958
 21
198.601641
  0
LINE
  5
B3
100
AcDbEntity
  8
M0
  6
CONTINUOUS
370
13
100
AcDbLine
 10
106.987465
 20
199.114446
 11
118.613352
 21
199.114446
  0
LINE
  5
B4
100
AcDbEntity
  8
M0
  6
CONTINUOUS
370
13
100
AcDbLine
 10
164.87279
 20
203.444946
 11
95.755512
 21
203.444946
  0
LINE
  5
B5
100
AcDbEntity
  8
M0
  6
CONTINUOUS
370
13
100
AcDbLine
 10
118.613352
 20
195.42952
 11
118.613352
 21
199.114446
  0
LINE
  5
B6
100
AcDbEntity
  8
M0
  6
CONTINUOUS
370
13
100
AcDbLine
 10
89.175288
 20
203.444946
 11
79.518706
 21
203.444946
  0
LINE
  5
B7
100
AcDbEntity
  8
M0
  6
CONTINUOUS
370
13
100
AcDbLine
 10
115.134028
 20
195.942325
 11
113.598671
 21
198.601641
  0
LINE
  5
B8
100
AcDbEntity
  8
M0
  6
CONTINUOUS
370
13
100
AcDbLine
 10
112.063314
 20
195.942325
 11
113.598671
 21
198.601641
  0
LINE
  5
B9
100
AcDbEntity
  8
M0
  6
CONTINUOUS
370
13
100
AcDbLine
 10
108.992601
 20
195.942325
 11
110.527958
 21
198.601641
  0
LINE
  5
BA
100
AcDbEntity
  8
M0
  6
CONTINUOUS
370
13
100
AcDbLine
 10
95.755512
 20
204.894733
 11
95.755512
 21
195.419211
  0
LINE
  5
BB
100
AcDbEntity
  8
M0
  6
CONTINUOUS
370
13
100
AcDbLine
 10
108.224922
 20
197.271983
 11
95.755512
 21
197.271983
  0
LINE
  5
BC
100
AcDbEntity
  8
M0
  6
CONTINUOUS
370
13
100
AcDbLine
 10
164.87279
 20
197.271983
 11
138.5578
 21
197.271983
  0
LINE
  5
59
102
{ACAD_REACTORS
330
58
102
}
330
1F
100
AcDbEntity
  8
M0
  6
CONTINUOUS
370
13
100
AcDbLine
 10
118.613352
 20
195.42952
 11
106.987465
 21
195.42952
  0
LINE
  5
BD
100
AcDbEntity
  8
M0
  6
CONTINUOUS
370
13
100
AcDbLine
 10
117.437063
 20
197.271983
 11
116.669384
 21
198.601641
  0
LINE
  5
BE
100
AcDbEntity
  8
M0
  6
CONTINUOUS
370
13
100
AcDbLine
 10
115.134028
 20
195.942325
 11
116.669384
 21
198.601641
  0
LINE
  5
BF
100
AcDbEntity
  8
M0
  6
CONTINUOUS
370
13
100
AcDbLine
 10
108.224922
 20
197.271983
 11
108.992601
 21
195.942325
  0
LINE
  5
C0
100
AcDbEntity
  8
M0
  6
CONTINUOUS
370
13
100
AcDbLine
 10
89.175288
 20
197.271983
 11
63.788751
 21
197.271983
  0
LINE
  5
C1
100
AcDbEntity
  8
M0
  6
CONTINUOUS
370
13
100
AcDbLine
 10
89.175288
 20
204.894733
 11
95.755512
 21
204.894733
  0
LINE
  5
C2
100
AcDbEntity
  8
M0
  6
CONTINUOUS
370
13
100
AcDbLine
 10
89.175288
 20
195.419211
 11
95.755512
 21
195.419211
  0
CIRCLE
  5
C3
100
AcDbEntity
  8
M0
  6
CONTINUOUS
370
13
100
AcDbCircle
 10
69.961714
 20
203.444946
 40
1.56672
  0
CIRCLE
  5
C4
100
AcDbEntity
  8
M0
  6
CONTINUOUS
370
13
100
AcDbCircle
 10
77.951986
 20
203.444946
 40
1.56672
  0
ARC
  5
5D
102
{ACAD_REACTORS
330
5C
102
}
330
1F
100
AcDbEntity
  8
M0
  6
CONTINUOUS
370
13
100
AcDbCircle
 10
73.95685
 20
202.039237
 40
6.655089
100
AcDbArc
 50
53.10769
 51
126.89231
  0
POINT
  5
C5
100
AcDbEntity
  8
M0
  6
CONTINUOUS
370
13
 62
     4
100
AcDbPoint
 10
73.95685
 20
208.694326
  0
TEXT
  5
C6
100
AcDbEntity
  8
M0
 62
     7
100
AcDbText
 10
94.274723
 20
238.148299
 40
4.5
  1
貯湯ユニット（ＲＨＫ－Ｔ５６ＡＫ）
 41
0.611111
  7
STANDARD
100
AcDbText
  0
TEXT
  5
C7
100
AcDbEntity
  8
M69
100
AcDbText
 10
398.25
 20
4.0
 40
5.0
  1
００１
 41
0.5
  7
STANDARD
100
AcDbText
  0
TEXT
  5
C8
100
AcDbEntity
  8
M71
100
AcDbText
 10
319.716667
 20
27.0
 40
5.0
  1
ＮＴＳ
 41
0.633333
  7
STANDARD
100
AcDbText
  0
TEXT
  5
C9
100
AcDbEntity
  8
M73
100
AcDbText
 10
341.549988
 20
10.3
 40
5.5
  1
３ＹＤＡ
 41
0.454545
  7
STANDARD
100
AcDbText
  0
TEXT
  5
CA
100
AcDbEntity
  8
M73
100
AcDbText
 10
354.558346
 20
10.0
 40
8.0
  1
ＢＢ００２６６４２
 41
0.447917
  7
STANDARD
100
AcDbText
  0
TEXT
  5
CB
100
AcDbEntity
  8
M73
100
AcDbText
 10
72.558333
 20
286.799988
 40
8.0
  1
ＢＢ００２６６４２
 50
180.000005
 41
0.552083
  7
STANDARD
100
AcDbText
  0
CIRCLE
  5
CC
100
AcDbEntity
  8
M74
  6
CONTINUOUS
370
25
100
AcDbCircle
 10
402.5
 20
17.5
 40
7.5
  0
TEXT
  5
CD
100
AcDbEntity
  8
M74
100
AcDbText
 10
397.708333
 20
19.6
 40
3.0
  1
ＲＥＧＤ
 41
0.694444
  7
STANDARD
100
AcDbText
  0
TEXT
  5
CE
100
AcDbEntity
  8
M74
100
AcDbText
 10
397.708333
 20
15.5
 40
3.0
  1
２０１１
 41
0.694444
  7
STANDARD
100
AcDbText
  0
TEXT
  5
CF
100
AcDbEntity
  8
M74
100
AcDbText
 10
397.708333
 20
12.8
 40
3.0
  1
０３１０
 41
0.694444
  7
STANDARD
100
AcDbText
  0
TEXT
  5
D0
100
AcDbEntity
  8
M75
100
AcDbText
 10
249.133333
 20
26.5
 40
4.0
  1
Ｍ．Ｏｓｏｄｏ
 41
0.333333
  7
STANDARD
100
AcDbText
  0
TEXT
  5
D1
100
AcDbEntity
  8
M75
100
AcDbText
 10
275.666667
 20
26.5
 40
3.5
  1
２０１１－０３－１０
 41
0.47619
  7
STANDARD
100
AcDbText
  0
TEXT
  5
D2
100
AcDbEntity
  8
M75
100
AcDbText
 10
249.133333
 20
21.0
 40
4.0
  1
Ｓ．Ｋａｔａｇｉｒｉ
 41
0.333333
  7
STANDARD
100
AcDbText
  0
TEXT
  5
D3
100
AcDbEntity
  8
M75
100
AcDbText
 10
275.666667
 20
21.0
 40
3.5
  1
２０１１－０３－１０
 41
0.47619
  7
STANDARD
100
AcDbText
  0
TEXT
  5
D4
100
AcDbEntity
  8
M75
100
AcDbText
 10
249.133333
 20
10.0
 40
4.0
  1
Ｓ．Ｋａｔａｇｉｒｉ
 41
0.333333
  7
STANDARD
100
AcDbText
  0
TEXT
  5
D5
100
AcDbEntity
  8
M75
100
AcDbText
 10
275.666667
 20
10.0
 40
3.5
  1
２０１１－０３－１０
 41
0.47619
  7
STANDARD
100
AcDbText
  0
LINE
  5
D6
100
AcDbEntity
  8
M79
  6
CONTINUOUS
370
25
 62
     7
100
AcDbLine
 10
25.0
 20
287.0
 11
410.0
 21
287.0
  0
LINE
  5
D7
100
AcDbEntity
  8
M79
  6
CONTINUOUS
370
25
 62
     7
100
AcDbLine
 10
25.0
 20
10.0
 11
25.0
 21
287.0
  0
LINE
  5
D8
100
AcDbEntity
  8
M79
  6
CONTINUOUS
370
25
 62
     7
100
AcDbLine
 10
410.0
 20
10.0
 11
410.0
 21
287.0
  0
LINE
  5
D9
100
AcDbEntity
  8
M79
  6
CONTINUOUS
370
13
 62
     7
100
AcDbLine
 10
0.0
 20
148.5
 11
25.0
 21
148.5
  0
LINE
  5
DA
100
AcDbEntity
  8
M79
  6
CONTINUOUS
370
13
 62
     7
100
AcDbLine
 10
410.0
 20
148.5
 11
420.0
 21
148.5
  0
LINE
  5
DB
100
AcDbEntity
  8
M79
  6
CONTINUOUS
370
13
 62
     7
100
AcDbLine
 10
20.0
 20
98.5
 11
25.0
 21
98.5
  0
LINE
  5
DC
100
AcDbEntity
  8
M79
  6
CONTINUOUS
370
13
 62
     7
100
AcDbLine
 10
20.0
 20
48.5
 11
25.0
 21
48.5
  0
LINE
  5
DD
100
AcDbEntity
  8
M79
  6
CONTINUOUS
370
13
 62
     7
100
AcDbLine
 10
20.0
 20
198.5
 11
25.0
 21
198.5
  0
LINE
  5
DE
100
AcDbEntity
  8
M79
  6
CONTINUOUS
370
13
 62
     7
100
AcDbLine
 10
20.0
 20
248.5
 11
25.0
 21
248.5
  0
LINE
  5
DF
100
AcDbEntity
  8
M79
  6
CONTINUOUS
370
13
 62
     7
100
AcDbLine
 10
410.0
 20
98.5
 11
415.0
 21
98.5
  0
LINE
  5
E0
100
AcDbEntity
  8
M79
  6
CONTINUOUS
370
13
 62
     7
100
AcDbLine
 10
410.0
 20
48.5
 11
415.0
 21
48.5
  0
LINE
  5
E1
100
AcDbEntity
  8
M79
  6
CONTINUOUS
370
13
 62
     7
100
AcDbLine
 10
410.0
 20
198.5
 11
415.0
 21
198.5
  0
LINE
  5
E2
100
AcDbEntity
  8
M79
  6
CONTINUOUS
370
13
 62
     7
100
AcDbLine
 10
410.0
 20
248.5
 11
415.0
 21
248.5
  0
LINE
  5
E3
100
AcDbEntity
  8
M79
  6
CONTINUOUS
370
13
 62
     7
100
AcDbLine
 10
210.0
 20
0.0
 11
210.0
 21
10.0
  0
LINE
  5
E4
100
AcDbEntity
  8
M79
  6
CONTINUOUS
370
13
 62
     7
100
AcDbLine
 10
160.0
 20
5.0
 11
160.0
 21
10.0
  0
LINE
  5
E5
100
AcDbEntity
  8
M79
  6
CONTINUOUS
370
13
 62
     7
100
AcDbLine
 10
110.0
 20
5.0
 11
110.0
 21
10.0
  0
LINE
  5
E6
100
AcDbEntity
  8
M79
  6
CONTINUOUS
370
13
 62
     7
100
AcDbLine
 10
60.0
 20
5.0
 11
60.0
 21
10.0
  0
LINE
  5
E7
100
AcDbEntity
  8
M79
  6
CONTINUOUS
370
13
 62
     7
100
AcDbLine
 10
260.0
 20
5.0
 11
260.0
 21
10.0
  0
LINE
  5
E8
100
AcDbEntity
  8
M79
  6
CONTINUOUS
370
13
 62
     7
100
AcDbLine
 10
310.0
 20
5.0
 11
310.0
 21
10.0
  0
LINE
  5
E9
100
AcDbEntity
  8
M79
  6
CONTINUOUS
370
13
 62
     7
100
AcDbLine
 10
60.0
 20
287.0
 11
60.0
 21
292.0
  0
LINE
  5
EA
100
AcDbEntity
  8
M79
  6
CONTINUOUS
370
13
 62
     7
100
AcDbLine
 10
110.0
 20
287.0
 11
110.0
 21
292.0
  0
LINE
  5
EB
100
AcDbEntity
  8
M79
  6
CONTINUOUS
370
13
 62
     7
100
AcDbLine
 10
160.0
 20
287.0
 11
160.0
 21
292.0
  0
LINE
  5
EC
100
AcDbEntity
  8
M79
  6
CONTINUOUS
370
13
 62
     7
100
AcDbLine
 10
210.0
 20
287.0
 11
210.0
 21
297.0
  0
LINE
  5
ED
100
AcDbEntity
  8
M79
  6
CONTINUOUS
370
13
 62
     7
100
AcDbLine
 10
260.0
 20
287.0
 11
260.0
 21
292.0
  0
LINE
  5
EE
100
AcDbEntity
  8
M79
  6
CONTINUOUS
370
13
 62
     7
100
AcDbLine
 10
310.0
 20
287.0
 11
310.0
 21
292.0
  0
LINE
  5
EF
100
AcDbEntity
  8
M79
  6
CONTINUOUS
370
13
 62
     7
100
AcDbLine
 10
360.0
 20
287.0
 11
360.0
 21
292.0
  0
LINE
  5
F0
100
AcDbEntity
  8
M79
  6
CONTINUOUS
370
13
 62
     7
100
AcDbLine
 10
360.0
 20
5.0
 11
360.0
 21
10.0
  0
LINE
  5
F1
100
AcDbEntity
  8
M79
  6
CONTINUOUS
370
25
 62
     7
100
AcDbLine
 10
25.0
 20
274.0
 11
72.699997
 21
274.0
  0
LINE
  5
F2
100
AcDbEntity
  8
M79
  6
CONTINUOUS
370
13
 62
     7
100
AcDbLine
 10
170.0
 20
4.999999
 11
170.0
 21
9.999999
  0
LINE
  5
F3
100
AcDbEntity
  8
M79
  6
CONTINUOUS
370
13
 62
     7
100
AcDbLine
 10
180.0
 20
4.999999
 11
180.0
 21
9.999999
  0
LINE
  5
F4
100
AcDbEntity
  8
M79
  6
CONTINUOUS
370
13
 62
     7
100
AcDbLine
 10
190.0
 20
4.999999
 11
190.0
 21
9.999999
  0
LINE
  5
F5
100
AcDbEntity
  8
M79
  6
CONTINUOUS
370
13
 62
     7
100
AcDbLine
 10
200.0
 20
4.999999
 11
200.0
 21
9.999999
  0
LINE
  5
F6
100
AcDbEntity
  8
M79
  6
CONTINUOUS
370
13
 62
     7
100
AcDbLine
 10
210.0
 20
4.999999
 11
210.0
 21
9.999999
  0
LINE
  5
F7
100
AcDbEntity
  8
M79
  6
CONTINUOUS
370
13
 62
     7
100
AcDbLine
 10
220.0
 20
4.999999
 11
220.0
 21
9.999999
  0
LINE
  5
F8
100
AcDbEntity
  8
M79
  6
CONTINUOUS
370
13
 62
     7
100
AcDbLine
 10
230.0
 20
4.999999
 11
230.0
 21
9.999999
  0
LINE
  5
F9
100
AcDbEntity
  8
M79
  6
CONTINUOUS
370
13
 62
     7
100
AcDbLine
 10
240.0
 20
4.999999
 11
240.0
 21
9.999999
  0
LINE
  5
FA
100
AcDbEntity
  8
M79
  6
CONTINUOUS
370
13
 62
     7
100
AcDbLine
 10
250.0
 20
4.999999
 11
250.0
 21
9.999999
  0
LINE
  5
FB
100
AcDbEntity
  8
M79
  6
CONTINUOUS
370
13
 62
     7
100
AcDbLine
 10
162.0
 20
7.499207
 11
162.0
 21
9.999999
  0
LINE
  5
FC
100
AcDbEntity
  8
M79
  6
CONTINUOUS
370
13
 62
     7
100
AcDbLine
 10
164.0
 20
7.498415
 11
164.0
 21
9.999999
  0
LINE
  5
FD
100
AcDbEntity
  8
M79
  6
CONTINUOUS
370
13
 62
     7
100
AcDbLine
 10
166.0
 20
7.497622
 11
166.0
 21
9.999999
  0
LINE
  5
FE
100
AcDbEntity
  8
M79
  6
CONTINUOUS
370
13
 62
     7
100
AcDbLine
 10
168.0
 20
7.496831
 11
168.0
 21
9.999999
  0
LINE
  5
FF
100
AcDbEntity
  8
M79
  6
CONTINUOUS
370
13
 62
     7
100
AcDbLine
 10
175.0
 20
7.494059
 11
175.0
 21
9.999998
  0
LINE
  5
100
100
AcDbEntity
  8
M79
  6
CONTINUOUS
370
13
 62
     7
100
AcDbLine
 10
185.0
 20
7.494058
 11
185.0
 21
9.999997
  0
LINE
  5
101
100
AcDbEntity
  8
M79
  6
CONTINUOUS
370
13
 62
     7
100
AcDbLine
 10
195.0
 20
7.494058
 11
195.0
 21
9.999997
  0
LINE
  5
102
100
AcDbEntity
  8
M79
  6
CONTINUOUS
370
13
 62
     7
100
AcDbLine
 10
205.0
 20
7.494058
 11
205.0
 21
9.999997
  0
LINE
  5
103
100
AcDbEntity
  8
M79
  6
CONTINUOUS
370
13
 62
     7
100
AcDbLine
 10
215.0
 20
7.494058
 11
215.0
 21
9.999997
  0
LINE
  5
104
100
AcDbEntity
  8
M79
  6
CONTINUOUS
370
13
 62
     7
100
AcDbLine
 10
225.0
 20
7.494058
 11
225.0
 21
9.999997
  0
LINE
  5
105
100
AcDbEntity
  8
M79
  6
CONTINUOUS
370
13
 62
     7
100
AcDbLine
 10
235.0
 20
7.494058
 11
235.0
 21
9.999997
  0
LINE
  5
106
100
AcDbEntity
  8
M79
  6
CONTINUOUS
370
13
 62
     7
100
AcDbLine
 10
245.0
 20
7.494058
 11
245.0
 21
9.999997
  0
LINE
  5
107
100
AcDbEntity
  8
M79
  6
CONTINUOUS
370
13
 62
     7
100
AcDbLine
 10
255.0
 20
7.494058
 11
255.0
 21
9.999997
  0
LINE
  5
108
100
AcDbEntity
  8
M79
  6
CONTINUOUS
370
13
 62
     7
100
AcDbLine
 10
160.0
 20
5.0
 11
260.0
 21
4.960396
  0
TEXT
  5
109
100
AcDbEntity
  8
M79
 62
     7
100
AcDbText
 10
18.5
 20
270.0
 40
4.0
  1
Ａ
 41
1.25
  7
STANDARD
100
AcDbText
  0
TEXT
  5
10A
100
AcDbEntity
  8
M79
 62
     7
100
AcDbText
 10
18.5
 20
220.0
 40
4.0
  1
Ｂ
 41
1.25
  7
STANDARD
100
AcDbText
  0
TEXT
  5
10B
100
AcDbEntity
  8
M79
 62
     7
100
AcDbText
 10
18.5
 20
170.0
 40
4.0
  1
Ｃ
 41
1.25
  7
STANDARD
100
AcDbText
  0
TEXT
  5
10C
100
AcDbEntity
  8
M79
 62
     7
100
AcDbText
 10
18.5
 20
120.0
 40
4.0
  1
Ｄ
 41
1.25
  7
STANDARD
100
AcDbText
  0
TEXT
  5
10D
100
AcDbEntity
  8
M79
 62
     7
100
AcDbText
 10
18.5
 20
70.0
 40
4.0
  1
Ｅ
 41
1.25
  7
STANDARD
100
AcDbText
  0
TEXT
  5
10E
100
AcDbEntity
  8
M79
 62
     7
100
AcDbText
 10
18.5
 20
30.0
 40
4.0
  1
Ｆ
 41
1.25
  7
STANDARD
100
AcDbText
  0
TEXT
  5
10F
100
AcDbEntity
  8
M79
 62
     7
100
AcDbText
 10
411.5
 20
270.0
 40
4.0
  1
Ａ
 41
1.25
  7
STANDARD
100
AcDbText
  0
TEXT
  5
110
100
AcDbEntity
  8
M79
 62
     7
100
AcDbText
 10
411.5
 20
220.0
 40
4.0
  1
Ｂ
 41
1.25
  7
STANDARD
100
AcDbText
  0
TEXT
  5
111
100
AcDbEntity
  8
M79
 62
     7
100
AcDbText
 10
411.5
 20
170.0
 40
4.0
  1
Ｃ
 41
1.25
  7
STANDARD
100
AcDbText
  0
TEXT
  5
112
100
AcDbEntity
  8
M79
 62
     7
100
AcDbText
 10
411.5
 20
120.0
 40
4.0
  1
Ｄ
 41
1.25
  7
STANDARD
100
AcDbText
  0
TEXT
  5
113
100
AcDbEntity
  8
M79
 62
     7
100
AcDbText
 10
411.5
 20
70.0
 40
4.0
  1
Ｅ
 41
1.25
  7
STANDARD
100
AcDbText
  0
TEXT
  5
114
100
AcDbEntity
  8
M79
 62
     7
100
AcDbText
 10
39.5
 20
4.0
 40
4.0
  1
１
 41
1.25
  7
STANDARD
100
AcDbText
  0
TEXT
  5
115
100
AcDbEntity
  8
M79
 62
     7
100
AcDbText
 10
81.5
 20
4.0
 40
4.0
  1
２
 41
1.25
  7
STANDARD
100
AcDbText
  0
TEXT
  5
116
100
AcDbEntity
  8
M79
 62
     7
100
AcDbText
 10
131.5
 20
4.0
 40
4.0
  1
３
 41
1.25
  7
STANDARD
100
AcDbText
  0
TEXT
  5
117
100
AcDbEntity
  8
M79
 62
     7
100
AcDbText
 10
281.5
 20
4.0
 40
4.0
  1
６
 41
1.25
  7
STANDARD
100
AcDbText
  0
TEXT
  5
118
100
AcDbEntity
  8
M79
 62
     7
100
AcDbText
 10
331.5
 20
4.0
 40
4.0
  1
７
 41
1.25
  7
STANDARD
100
AcDbText
  0
TEXT
  5
119
100
AcDbEntity
  8
M79
 62
     7
100
AcDbText
 10
182.420563
 20
0.724621
 40
4.0
  1
４
 41
1.25
  7
STANDARD
100
AcDbText
  0
TEXT
  5
11A
100
AcDbEntity
  8
M79
 62
     7
100
AcDbText
 10
232.487747
 20
0.621103
 40
4.0
  1
５
 41
1.25
  7
STANDARD
100
AcDbText
  0
TEXT
  5
11B
100
AcDbEntity
  8
M79
 62
     7
100
AcDbText
 10
39.5
 20
289.0
 40
4.0
  1
１
 41
1.25
  7
STANDARD
100
AcDbText
  0
TEXT
  5
11C
100
AcDbEntity
  8
M79
 62
     7
100
AcDbText
 10
81.5
 20
289.0
 40
4.0
  1
２
 41
1.25
  7
STANDARD
100
AcDbText
  0
TEXT
  5
11D
100
AcDbEntity
  8
M79
 62
     7
100
AcDbText
 10
131.5
 20
289.0
 40
4.0
  1
３
 41
1.25
  7
STANDARD
100
AcDbText
  0
TEXT
  5
11E
100
AcDbEntity
  8
M79
 62
     7
100
AcDbText
 10
281.5
 20
289.0
 40
4.0
  1
６
 41
1.25
  7
STANDARD
100
AcDbText
  0
TEXT
  5
11F
100
AcDbEntity
  8
M79
 62
     7
100
AcDbText
 10
331.5
 20
289.0
 40
4.0
  1
７
 41
1.25
  7
STANDARD
100
AcDbText
  0
TEXT
  5
120
100
AcDbEntity
  8
M79
 62
     7
100
AcDbText
 10
381.5
 20
289.0
 40
4.0
  1
８
 41
1.25
  7
STANDARD
100
AcDbText
  0
TEXT
  5
121
100
AcDbEntity
  8
M79
 62
     7
100
AcDbText
 10
182.420563
 20
288.924561
 40
4.0
  1
４
 41
1.25
  7
STANDARD
100
AcDbText
  0
TEXT
  5
122
100
AcDbEntity
  8
M79
 62
     7
100
AcDbText
 10
232.487747
 20
289.020996
 40
4.0
  1
５
 41
1.25
  7
STANDARD
100
AcDbText
  0
TEXT
  5
123
100
AcDbEntity
  8
M79
 62
     7
100
AcDbText
 10
158.373433
 20
2.218226
 40
2.0
  1
０
 41
1.666667
  7
STANDARD
100
AcDbText
  0
TEXT
  5
124
100
AcDbEntity
  8
M79
 62
     7
100
AcDbText
 10
256.725179
 20
2.129498
 40
2.0
  1
１００
 41
0.916667
  7
STANDARD
100
AcDbText
  0
LINE
  5
125
100
AcDbEntity
  8
M79
  6
CONTINUOUS
370
25
 62
     7
100
AcDbLine
 10
72.699997
 20
287.0
 11
72.699997
 21
274.0
  0
LINE
  5
126
100
AcDbEntity
  8
M79
  6
CONTINUOUS
370
25
 62
     7
100
AcDbLine
 10
25.0
 20
10.0
 11
410.0
 21
10.0
  0
TEXT
  5
127
100
AcDbEntity
  8
M79
 62
     7
100
AcDbText
 10
241.246246
 20
27.470188
 40
2.5
  1
ＤＷＮ．
 41
0.5
  7
STANDARD
100
AcDbText
  0
TEXT
  5
128
100
AcDbEntity
  8
M79
 62
     7
100
AcDbText
 10
240.968414
 20
19.642731
 40
2.5
  1
ＣＨＫＤ．
 41
0.5
  7
STANDARD
100
AcDbText
  0
TEXT
  5
129
100
AcDbEntity
  8
M79
 62
     7
100
AcDbText
 10
240.867371
 20
11.237426
 40
2.5
  1
ＡＰＰＤ．
 41
0.5
  7
STANDARD
100
AcDbText
  0
TEXT
  5
12A
100
AcDbEntity
  8
M79
 62
     7
100
AcDbText
 10
334.966502
 20
34.001312
 40
3.0
  1
ＴＩＴＬＥ
 41
0.555556
  7
STANDARD
100
AcDbText
  0
TEXT
  5
12B
100
AcDbEntity
  8
M79
 62
     7
100
AcDbText
 10
342.164164
 20
22.153
 40
3.0
  1
ＴＯＣＨＩＧＩ　ＤＷＧ．　Ｎｏ．
 41
0.555556
  7
STANDARD
100
AcDbText
  0
TEXT
  5
12C
100
AcDbEntity
  8
M79
 62
     7
100
AcDbText
 10
319.896495
 20
34.001312
 40
3.0
  1
ＳＣＡＬＥ
 41
0.555556
  7
STANDARD
100
AcDbText
  0
TEXT
  5
12D
100
AcDbEntity
  8
M79
 62
     7
100
AcDbText
 10
411.5
 20
30.0
 40
4.0
  1
Ｆ
 41
1.25
  7
STANDARD
100
AcDbText
  0
LINE
  5
12E
100
AcDbEntity
  8
M79
  6
CONTINUOUS
370
25
 62
     7
100
AcDbLine
 10
240.0
 20
37.5
 11
410.0
 21
37.5
  0
LINE
  5
12F
100
AcDbEntity
  8
M79
  6
CONTINUOUS
370
13
 62
     7
100
AcDbLine
 10
298.0
 20
26.0
 11
410.0
 21
26.0
  0
LINE
  5
130
100
AcDbEntity
  8
M79
  6
CONTINUOUS
370
13
 62
     7
100
AcDbLine
 10
334.0
 20
37.5
 11
334.0
 21
26.0
  0
LINE
  5
131
100
AcDbEntity
  8
M79
  6
CONTINUOUS
370
13
 62
     7
100
AcDbLine
 10
316.0
 20
37.5
 11
316.0
 21
26.0
  0
LINE
  5
132
100
AcDbEntity
  8
M79
  6
CONTINUOUS
370
13
 62
     7
100
AcDbLine
 10
395.0
 20
26.0
 11
395.0
 21
10.0
  0
LINE
  5
133
100
AcDbEntity
  8
M79
  6
CONTINUOUS
370
13
 62
     7
100
AcDbLine
 10
298.0
 20
37.5
 11
298.0
 21
10.0
  0
LINE
  5
134
100
AcDbEntity
  8
M79
  6
CONTINUOUS
370
13
 62
     7
100
AcDbLine
 10
240.0
 20
26.5
 11
298.0
 21
26.5
  0
LINE
  5
135
100
AcDbEntity
  8
M79
  6
CONTINUOUS
370
13
 62
     7
100
AcDbLine
 10
248.0
 20
32.0
 11
248.0
 21
10.0
  0
LINE
  5
136
100
AcDbEntity
  8
M79
  6
CONTINUOUS
370
13
 62
     7
100
AcDbLine
 10
240.0
 20
32.0
 11
298.0
 21
32.0
  0
LINE
  5
137
100
AcDbEntity
  8
M79
  6
CONTINUOUS
370
25
 62
     7
100
AcDbLine
 10
240.0
 20
37.5
 11
240.0
 21
10.0
  0
LINE
  5
138
100
AcDbEntity
  8
M79
  6
CONTINUOUS
370
13
 62
     7
100
AcDbLine
 10
273.0
 20
37.5
 11
273.0
 21
10.0
  0
LINE
  5
139
100
AcDbEntity
  8
M79
  6
CONTINUOUS
370
13
 62
     7
100
AcDbLine
 10
248.0
 20
21.0
 11
298.0
 21
21.0
  0
LINE
  5
13A
100
AcDbEntity
  8
M79
  6
CONTINUOUS
370
13
 62
     7
100
AcDbLine
 10
240.0
 20
15.5
 11
298.0
 21
15.5
  0
LINE
  5
13B
100
AcDbEntity
  8
M79
  6
CONTINUOUS
370
13
 62
     7
100
AcDbLine
 10
341.3
 20
26.0
 11
341.3
 21
10.0
  0
TEXT
  5
13C
100
AcDbEntity
  8
M79
 62
     7
100
AcDbText
 10
398.43067
 20
23.014603
 40
2.8
  1
ＲＥＧＤ．
 41
0.535714
  7
STANDARD
100
AcDbText
  0
TEXT
  5
13D
100
AcDbEntity
  8
M79
 62
     7
100
AcDbText
 10
281.166667
 20
33.0
 40
3.0
  1
ＤＡＴＥ
 41
0.555556
  7
STANDARD
100
AcDbText
  0
TEXT
  5
13E
100
AcDbEntity
  8
M79
 62
     7
100
AcDbText
 10
248.166667
 20
33.0
 40
3.0
  1
ＳＩＧＮＡＴＵＲＥ
 41
0.555556
  7
STANDARD
100
AcDbText
  0
TEXT
  5
13F
100
AcDbEntity
  8
M79
 62
     7
100
AcDbText
 10
299.816162
 20
34.347473
 40
2.5
  1
ＰＲＯＪＥＣＴＩＯＮ
 41
0.5
  7
STANDARD
100
AcDbText
  0
LINE
  5
140
100
AcDbEntity
  8
M79
  6
CONTINUOUS
370
25
 62
     7
100
AcDbLine
 10
400.990983
 20
32.8
 11
401.3
 21
32.8
  0
ARC
  5
141
100
AcDbEntity
  8
M79
  6
CONTINUOUS
370
25
 62
     7
100
AcDbCircle
 10
400.990983
 20
34.0
 40
0.2
100
AcDbArc
 50
90.0
 51
138.189685
  0
ARC
  5
142
100
AcDbEntity
  8
M79
  6
CONTINUOUS
370
25
 62
     7
100
AcDbCircle
 10
401.55
 20
33.5
 40
0.95
100
AcDbArc
 50
138.189685
 51
221.810315
  0
ELLIPSE
  5
143
100
AcDbEntity
  8
M79
  6
CONTINUOUS
370
25
 62
     7
100
AcDbEllipse
 10
404.0
 20
33.5
 11
5.0
 21
0.0
210
0.0
220
0.0
230
1.0
 40
0.6
 41
0.0
 42
6.283185307179586
  0
LINE
  5
144
100
AcDbEntity
  8
M79
  6
CONTINUOUS
370
25
 62
     7
100
AcDbLine
 10
402.1
 20
35.2
 11
402.1
 21
34.894427
  0
LINE
  5
145
100
AcDbEntity
  8
M79
  6
CONTINUOUS
370
25
 62
     7
100
AcDbLine
 10
406.8
 20
34.2
 11
406.8
 21
32.8
  0
LINE
  5
146
100
AcDbEntity
  8
M79
  6
CONTINUOUS
370
25
 62
     7
100
AcDbLine
 10
405.8
 20
34.2
 11
406.0
 21
34.2
  0
LINE
  5
147
100
AcDbEntity
  8
M79
  6
CONTINUOUS
370
25
 62
     7
100
AcDbLine
 10
407.209017
 20
32.8
 11
406.8
 21
32.8
  0
LINE
  5
148
100
AcDbEntity
  8
M79
  6
CONTINUOUS
370
25
 62
     7
100
AcDbLine
 10
406.8
 20
34.2
 11
407.209017
 21
34.2
  0
LINE
  5
149
100
AcDbEntity
  8
M79
  6
CONTINUOUS
370
25
 62
     7
100
AcDbLine
 10
406.0
 20
32.8
 11
405.8
 21
32.8
  0
LINE
  5
14A
100
AcDbEntity
  8
M79
  6
CONTINUOUS
370
25
 62
     7
100
AcDbLine
 10
403.189003
 20
31.8
 11
403.458233
 21
32.5
  0
LINE
  5
14B
100
AcDbEntity
  8
M79
  6
CONTINUOUS
370
25
 62
     7
100
AcDbLine
 10
404.810997
 20
31.8
 11
404.541767
 21
32.5
  0
LINE
  5
14C
100
AcDbEntity
  8
M79
  6
CONTINUOUS
370
25
 62
     7
100
AcDbLine
 10
403.727464
 20
33.2
 11
404.0
 21
34.108593
  0
LINE
  5
14D
100
AcDbEntity
  8
M79
  6
CONTINUOUS
370
25
 62
     7
100
AcDbLine
 10
403.727464
 20
33.2
 11
404.272536
 21
33.2
  0
LINE
  5
14E
100
AcDbEntity
  8
M79
  6
CONTINUOUS
370
25
 62
     7
100
AcDbLine
 10
404.272536
 20
33.2
 11
404.0
 21
34.108593
  0
LINE
  5
14F
100
AcDbEntity
  8
M79
  6
CONTINUOUS
370
25
 62
     7
100
AcDbLine
 10
403.458233
 20
32.5
 11
404.541767
 21
32.5
  0
LINE
  5
150
100
AcDbEntity
  8
M79
  6
CONTINUOUS
370
25
 62
     7
100
AcDbLine
 10
406.0
 20
34.2
 11
406.0
 21
32.8
  0
LINE
  5
151
100
AcDbEntity
  8
M79
  6
CONTINUOUS
370
25
 62
     7
100
AcDbLine
 10
400.990983
 20
35.2
 11
401.3
 21
35.2
  0
LINE
  5
152
100
AcDbEntity
  8
M79
  6
CONTINUOUS
370
25
 62
     7
100
AcDbLine
 10
402.1
 20
35.2
 11
402.5
 21
35.2
  0
LINE
  5
153
100
AcDbEntity
  8
M79
  6
CONTINUOUS
370
25
 62
     7
100
AcDbLine
 10
402.5
 20
35.2
 11
402.5
 21
33.9
  0
LINE
  5
154
100
AcDbEntity
  8
M79
  6
CONTINUOUS
370
25
 62
     7
100
AcDbLine
 10
400.990983
 20
31.8
 11
401.3
 21
31.8
  0
LINE
  5
155
100
AcDbEntity
  8
M79
  6
CONTINUOUS
370
25
 62
     7
100
AcDbLine
 10
403.65
 20
35.2
 11
404.35
 21
35.2
  0
LINE
  5
156
100
AcDbEntity
  8
M79
  6
CONTINUOUS
370
25
 62
     7
100
AcDbLine
 10
402.317588
 20
31.8
 11
403.189003
 21
31.8
  0
LINE
  5
157
100
AcDbEntity
  8
M79
  6
CONTINUOUS
370
25
 62
     7
100
AcDbLine
 10
404.810997
 20
31.8
 11
405.682412
 21
31.8
  0
LINE
  5
158
100
AcDbEntity
  8
M79
  6
CONTINUOUS
370
25
 62
     7
100
AcDbLine
 10
407.009017
 20
31.8
 11
405.8
 21
31.8
  0
LINE
  5
159
100
AcDbEntity
  8
M79
  6
CONTINUOUS
370
25
 62
     7
100
AcDbLine
 10
405.8
 20
35.2
 11
407.009017
 21
35.2
  0
LINE
  5
15A
100
AcDbEntity
  8
M79
  6
CONTINUOUS
370
25
 62
     7
100
AcDbLine
 10
405.8
 20
35.2
 11
405.8
 21
34.2
  0
LINE
  5
15B
100
AcDbEntity
  8
M79
  6
CONTINUOUS
370
25
 62
     7
100
AcDbLine
 10
405.8
 20
32.8
 11
405.8
 21
31.8
  0
LINE
  5
15C
100
AcDbEntity
  8
M79
  6
CONTINUOUS
370
25
 62
     7
100
AcDbLine
 10
403.65
 20
35.2
 11
402.317588
 21
31.8
  0
LINE
  5
15D
100
AcDbEntity
  8
M79
  6
CONTINUOUS
370
25
 62
     7
100
AcDbLine
 10
404.35
 20
35.2
 11
405.682412
 21
31.8
  0
LINE
  5
15E
100
AcDbEntity
  8
M79
  6
CONTINUOUS
370
25
 62
     7
100
AcDbLine
 10
402.5
 20
33.9
 11
401.602667
 21
33.9
  0
LINE
  5
15F
100
AcDbEntity
  8
M79
  6
CONTINUOUS
370
25
 62
     7
100
AcDbLine
 10
402.495826
 20
33.1
 11
401.602667
 21
33.1
  0
LINE
  5
160
100
AcDbEntity
  8
M79
  6
CONTINUOUS
370
25
 62
     7
100
AcDbLine
 10
401.820551
 20
30.8
 11
406.179449
 21
30.8
  0
LINE
  5
161
100
AcDbEntity
  8
M79
  6
CONTINUOUS
370
25
 62
     7
100
AcDbLine
 10
401.0
 20
31.1
 11
407.0
 21
31.1
  0
LINE
  5
162
100
AcDbEntity
  8
M79
  6
CONTINUOUS
370
25
 62
     7
100
AcDbLine
 10
400.429286
 20
31.4
 11
407.570714
 21
31.4
  0
LINE
  5
163
100
AcDbEntity
  8
M79
  6
CONTINUOUS
370
25
 62
     7
100
AcDbLine
 10
400.0
 20
31.7
 11
408.0
 21
31.7
  0
LINE
  5
164
100
AcDbEntity
  8
M79
  6
CONTINUOUS
370
25
 62
     7
100
AcDbLine
 10
399.669873
 20
32.0
 11
400.327658
 21
32.0
  0
LINE
  5
165
100
AcDbEntity
  8
M79
  6
CONTINUOUS
370
25
 62
     7
100
AcDbLine
 10
401.963325
 20
32.0
 11
402.395965
 21
32.0
  0
LINE
  5
166
100
AcDbEntity
  8
M79
  6
CONTINUOUS
370
25
 62
     7
100
AcDbLine
 10
403.265926
 20
32.0
 11
404.734074
 21
32.0
  0
LINE
  5
167
100
AcDbEntity
  8
M79
  6
CONTINUOUS
370
25
 62
     7
100
AcDbLine
 10
405.604035
 20
32.0
 11
405.8
 21
32.0
  0
LINE
  5
168
100
AcDbEntity
  8
M79
  6
CONTINUOUS
370
25
 62
     7
100
AcDbLine
 10
407.672342
 20
32.0
 11
408.330127
 21
32.0
  0
LINE
  5
169
100
AcDbEntity
  8
M79
  6
CONTINUOUS
370
25
 62
     7
100
AcDbLine
 10
399.417424
 20
32.3
 11
400.012957
 21
32.3
  0
LINE
  5
16A
100
AcDbEntity
  8
M79
  6
CONTINUOUS
370
25
 62
     7
100
AcDbLine
 10
402.274679
 20
32.3
 11
402.513531
 21
32.3
  0
LINE
  5
16B
100
AcDbEntity
  8
M79
  6
CONTINUOUS
370
25
 62
     7
100
AcDbLine
 10
403.38131
 20
32.3
 11
404.61869
 21
32.3
  0
LINE
  5
16C
100
AcDbEntity
  8
M79
  6
CONTINUOUS
370
25
 62
     7
100
AcDbLine
 10
405.486469
 20
32.3
 11
405.8
 21
32.3
  0
LINE
  5
16D
100
AcDbEntity
  8
M79
  6
CONTINUOUS
370
25
 62
     7
100
AcDbLine
 10
407.987043
 20
32.3
 11
408.582576
 21
32.3
  0
LINE
  5
16E
100
AcDbEntity
  8
M79
  6
CONTINUOUS
370
25
 62
     7
100
AcDbLine
 10
399.230304
 20
32.6
 11
399.820116
 21
32.6
  0
LINE
  5
16F
100
AcDbEntity
  8
M79
  6
CONTINUOUS
370
25
 62
     7
100
AcDbLine
 10
402.431371
 20
32.6
 11
402.631097
 21
32.6
  0
LINE
  5
170
100
AcDbEntity
  8
M79
  6
CONTINUOUS
370
25
 62
     7
100
AcDbLine
 10
405.368903
 20
32.6
 11
405.8
 21
32.6
  0
LINE
  5
171
100
AcDbEntity
  8
M79
  6
CONTINUOUS
370
25
 62
     7
100
AcDbLine
 10
408.179884
 20
32.6
 11
408.769696
 21
32.6
  0
LINE
  5
172
100
AcDbEntity
  8
M79
  6
CONTINUOUS
370
25
 62
     7
100
AcDbLine
 10
399.101021
 20
32.9
 11
399.694602
 21
32.9
  0
LINE
  5
173
100
AcDbEntity
  8
M79
  6
CONTINUOUS
370
25
 62
     7
100
AcDbLine
 10
400.813454
 20
32.9
 11
401.477529
 21
32.9
  0
LINE
  5
174
100
AcDbEntity
  8
M79
  6
CONTINUOUS
370
25
 62
     7
100
AcDbLine
 10
402.495826
 20
32.9
 11
402.748663
 21
32.9
  0
LINE
  5
175
100
AcDbEntity
  8
M79
  6
CONTINUOUS
370
25
 62
     7
100
AcDbLine
 10
405.251337
 20
32.9
 11
406.0
 21
32.9
  0
ARC
  5
176
100
AcDbEntity
  8
M79
  6
CONTINUOUS
370
25
 62
     7
100
AcDbCircle
 10
400.990983
 20
33.0
 40
0.2
100
AcDbArc
 50
221.810315
 51
270.0
  0
LINE
  5
177
100
AcDbEntity
  8
M79
  6
CONTINUOUS
370
25
 62
     7
100
AcDbLine
 10
400.990983
 20
34.2
 11
401.3
 21
34.2
  0
ARC
  5
178
100
AcDbEntity
  8
M79
  6
CONTINUOUS
370
25
 62
     7
100
AcDbCircle
 10
406.65
 20
33.5
 40
0.95
100
AcDbArc
 50
318.189685
 51
401.810315
  0
LINE
  5
179
100
AcDbEntity
  8
M79
  6
CONTINUOUS
370
25
 62
     7
100
AcDbLine
 10
406.8
 20
34.0
 11
407.457775
 21
34.0
  0
ARC
  5
17A
100
AcDbEntity
  8
M79
  6
CONTINUOUS
370
25
 62
     7
100
AcDbCircle
 10
407.209017
 20
34.0
 40
0.2
100
AcDbArc
 50
41.810315
 51
90.0
  0
ARC
  5
17B
100
AcDbEntity
  8
M79
  6
CONTINUOUS
370
25
 62
     7
100
AcDbCircle
 10
407.209017
 20
33.0
 40
0.2
100
AcDbArc
 50
270.0
 51
318.189685
  0
ARC
  5
17C
100
AcDbEntity
  8
M79
  6
CONTINUOUS
370
25
 62
     7
100
AcDbCircle
 10
401.3
 20
34.0
 40
1.2
100
AcDbArc
 50
48.189685
 51
90.0
  0
ARC
  5
17D
100
AcDbEntity
  8
M79
  6
CONTINUOUS
370
25
 62
     7
100
AcDbCircle
 10
400.990983
 20
34.0
 40
1.2
100
AcDbArc
 50
90.0
 51
138.189685
  0
ARC
  5
17E
100
AcDbEntity
  8
M79
  6
CONTINUOUS
370
25
 62
     7
100
AcDbCircle
 10
401.55
 20
33.5
 40
1.95
100
AcDbArc
 50
138.189685
 51
221.810315
  0
ARC
  5
17F
100
AcDbEntity
  8
M79
  6
CONTINUOUS
370
25
 62
     7
100
AcDbCircle
 10
400.990983
 20
33.0
 40
1.2
100
AcDbArc
 50
221.810315
 51
270.0
  0
ARC
  5
180
100
AcDbEntity
  8
M79
  6
CONTINUOUS
370
25
 62
     7
100
AcDbCircle
 10
401.3
 20
33.0
 40
1.2
100
AcDbArc
 50
270.0
 51
364.780192
  0
ARC
  5
181
100
AcDbEntity
  8
M79
  6
CONTINUOUS
370
25
 62
     7
100
AcDbCircle
 10
406.45
 20
33.5
 40
1.95
100
AcDbArc
 50
318.189685
 51
401.810315
  0
ARC
  5
182
100
AcDbEntity
  8
M79
  6
CONTINUOUS
370
25
 62
     7
100
AcDbCircle
 10
407.009017
 20
33.0
 40
1.2
100
AcDbArc
 50
270.0
 51
318.189685
  0
ARC
  5
183
100
AcDbEntity
  8
M79
  6
CONTINUOUS
370
25
 62
     7
100
AcDbCircle
 10
407.009017
 20
34.0
 40
1.2
100
AcDbArc
 50
41.810315
 51
90.0
  0
ARC
  5
184
100
AcDbEntity
  8
M79
  6
CONTINUOUS
370
25
 62
     7
100
AcDbCircle
 10
401.3
 20
34.0
 40
0.2
100
AcDbArc
 50
41.810315
 51
90.0
  0
ARC
  5
185
100
AcDbEntity
  8
M79
  6
CONTINUOUS
370
25
 62
     7
100
AcDbCircle
 10
400.740983
 20
33.5
 40
0.95
100
AcDbArc
 50
318.189685
 51
335.098938
  0
ARC
  5
186
100
AcDbEntity
  8
M79
  6
CONTINUOUS
370
25
 62
     7
100
AcDbCircle
 10
401.3
 20
33.0
 40
0.2
100
AcDbArc
 50
270.0
 51
318.189685
  0
ARC
  5
187
100
AcDbEntity
  8
M79
  6
CONTINUOUS
370
25
 62
     7
100
AcDbCircle
 10
400.740983
 20
33.5
 40
0.95
100
AcDbArc
 50
24.901062
 51
41.810315
  0
LINE
  5
188
100
AcDbEntity
  8
M79
  6
CONTINUOUS
370
25
 62
     7
100
AcDbLine
 10
408.305398
 20
32.9
 11
408.898979
 21
32.9
  0
LINE
  5
189
100
AcDbEntity
  8
M79
  6
CONTINUOUS
370
25
 62
     7
100
AcDbLine
 10
399.025063
 20
33.2
 11
399.623215
 21
33.2
  0
LINE
  5
18A
100
AcDbEntity
  8
M79
  6
CONTINUOUS
370
25
 62
     7
100
AcDbLine
 10
400.648612
 20
33.2
 11
402.866228
 21
33.2
  0
LINE
  5
18B
100
AcDbEntity
  8
M79
  6
CONTINUOUS
370
25
 62
     7
100
AcDbLine
 10
405.133772
 20
33.2
 11
406.0
 21
33.2
  0
LINE
  5
18C
100
AcDbEntity
  8
M79
  6
CONTINUOUS
370
25
 62
     7
100
AcDbLine
 10
408.376785
 20
33.2
 11
408.974937
 21
33.2
  0
LINE
  5
18D
100
AcDbEntity
  8
M79
  6
CONTINUOUS
370
25
 62
     7
100
AcDbLine
 10
399.0
 20
33.5
 11
399.6
 21
33.5
  0
LINE
  5
18E
100
AcDbEntity
  8
M79
  6
CONTINUOUS
370
25
 62
     7
100
AcDbLine
 10
400.6
 20
33.5
 11
402.983794
 21
33.5
  0
LINE
  5
18F
100
AcDbEntity
  8
M79
  6
CONTINUOUS
370
25
 62
     7
100
AcDbLine
 10
405.016206
 20
33.5
 11
406.0
 21
33.5
  0
LINE
  5
190
100
AcDbEntity
  8
M79
  6
CONTINUOUS
370
25
 62
     7
100
AcDbLine
 10
408.4
 20
33.5
 11
409.0
 21
33.5
  0
LINE
  5
191
100
AcDbEntity
  8
M79
  6
CONTINUOUS
370
25
 62
     7
100
AcDbLine
 10
399.025063
 20
33.8
 11
399.623215
 21
33.8
  0
LINE
  5
192
100
AcDbEntity
  8
M79
  6
CONTINUOUS
370
25
 62
     7
100
AcDbLine
 10
400.648612
 20
33.8
 11
403.10136
 21
33.8
  0
LINE
  5
193
100
AcDbEntity
  8
M79
  6
CONTINUOUS
370
25
 62
     7
100
AcDbLine
 10
404.89864
 20
33.8
 11
406.0
 21
33.8
  0
LINE
  5
194
100
AcDbEntity
  8
M79
  6
CONTINUOUS
370
25
 62
     7
100
AcDbLine
 10
408.376785
 20
33.8
 11
408.974937
 21
33.8
  0
LINE
  5
195
100
AcDbEntity
  8
M79
  6
CONTINUOUS
370
25
 62
     7
100
AcDbLine
 10
399.101021
 20
34.1
 11
399.694602
 21
34.1
  0
LINE
  5
196
100
AcDbEntity
  8
M79
  6
CONTINUOUS
370
25
 62
     7
100
AcDbLine
 10
400.813454
 20
34.1
 11
401.477529
 21
34.1
  0
LINE
  5
197
100
AcDbEntity
  8
M79
  6
CONTINUOUS
370
25
 62
     7
100
AcDbLine
 10
402.5
 20
34.1
 11
403.218926
 21
34.1
  0
LINE
  5
198
100
AcDbEntity
  8
M79
  6
CONTINUOUS
370
25
 62
     7
100
AcDbLine
 10
404.781074
 20
34.1
 11
406.0
 21
34.1
  0
LINE
  5
199
100
AcDbEntity
  8
M79
  6
CONTINUOUS
370
25
 62
     7
100
AcDbLine
 10
408.305398
 20
34.1
 11
408.898979
 21
34.1
  0
LINE
  5
19A
100
AcDbEntity
  8
M79
  6
CONTINUOUS
370
25
 62
     7
100
AcDbLine
 10
399.230304
 20
34.4
 11
399.820116
 21
34.4
  0
LINE
  5
19B
100
AcDbEntity
  8
M79
  6
CONTINUOUS
370
25
 62
     7
100
AcDbLine
 10
402.5
 20
34.4
 11
403.336491
 21
34.4
  0
LINE
  5
19C
100
AcDbEntity
  8
M79
  6
CONTINUOUS
370
25
 62
     7
100
AcDbLine
 10
404.663509
 20
34.4
 11
405.8
 21
34.4
  0
LINE
  5
19D
100
AcDbEntity
  8
M79
  6
CONTINUOUS
370
25
 62
     7
100
AcDbLine
 10
408.179884
 20
34.4
 11
408.769696
 21
34.4
  0
LINE
  5
19E
100
AcDbEntity
  8
M79
  6
CONTINUOUS
370
25
 62
     7
100
AcDbLine
 10
399.417424
 20
34.7
 11
400.012957
 21
34.7
  0
LINE
  5
19F
100
AcDbEntity
  8
M79
  6
CONTINUOUS
370
25
 62
     7
100
AcDbLine
 10
402.5
 20
34.7
 11
403.454057
 21
34.7
  0
LINE
  5
1A0
100
AcDbEntity
  8
M79
  6
CONTINUOUS
370
25
 62
     7
100
AcDbLine
 10
404.545943
 20
34.7
 11
405.8
 21
34.7
  0
LINE
  5
1A1
100
AcDbEntity
  8
M79
  6
CONTINUOUS
370
25
 62
     7
100
AcDbLine
 10
407.987043
 20
34.7
 11
408.582576
 21
34.7
  0
LINE
  5
1A2
100
AcDbEntity
  8
M79
  6
CONTINUOUS
370
25
 62
     7
100
AcDbLine
 10
399.669873
 20
35.0
 11
400.327658
 21
35.0
  0
LINE
  5
1A3
100
AcDbEntity
  8
M79
  6
CONTINUOUS
370
25
 62
     7
100
AcDbLine
 10
401.963325
 20
35.0
 11
402.1
 21
35.0
  0
LINE
  5
1A4
100
AcDbEntity
  8
M79
  6
CONTINUOUS
370
25
 62
     7
100
AcDbLine
 10
402.5
 20
35.0
 11
403.571623
 21
35.0
  0
LINE
  5
1A5
100
AcDbEntity
  8
M79
  6
CONTINUOUS
370
25
 62
     7
100
AcDbLine
 10
404.428377
 20
35.0
 11
405.8
 21
35.0
  0
LINE
  5
1A6
100
AcDbEntity
  8
M79
  6
CONTINUOUS
370
25
 62
     7
100
AcDbLine
 10
407.672342
 20
35.0
 11
408.330127
 21
35.0
  0
LINE
  5
1A7
100
AcDbEntity
  8
M79
  6
CONTINUOUS
370
25
 62
     7
100
AcDbLine
 10
400.0
 20
35.3
 11
408.0
 21
35.3
  0
LINE
  5
1A8
100
AcDbEntity
  8
M79
  6
CONTINUOUS
370
25
 62
     7
100
AcDbLine
 10
400.429286
 20
35.6
 11
407.570714
 21
35.6
  0
LINE
  5
1A9
100
AcDbEntity
  8
M79
  6
CONTINUOUS
370
25
 62
     7
100
AcDbLine
 10
401.0
 20
35.9
 11
407.0
 21
35.9
  0
LINE
  5
1AA
100
AcDbEntity
  8
M79
  6
CONTINUOUS
370
25
 62
     7
100
AcDbLine
 10
401.820551
 20
36.2
 11
406.179449
 21
36.2
  0
LINE
  5
1AB
100
AcDbEntity
  8
M79
  6
CONTINUOUS
370
25
 62
     7
100
AcDbLine
 10
403.81745
 20
33.5
 11
404.18255
 21
33.5
  0
LINE
  5
1AC
100
AcDbEntity
  8
M79
  6
CONTINUOUS
370
25
 62
     7
100
AcDbLine
 10
403.907436
 20
33.8
 11
404.092564
 21
33.8
  0
LINE
  5
1AD
100
AcDbEntity
  8
M79
  6
CONTINUOUS
370
25
 62
     7
100
AcDbLine
 10
403.997422
 20
34.1
 11
404.002578
 21
34.1
  0
LINE
  5
1AE
100
AcDbEntity
  8
M79
  6
CONTINUOUS
370
25
 62
     7
100
AcDbLine
 10
406.8
 20
33.1
 11
407.511684
 21
33.1
  0
LINE
  5
1AF
100
AcDbEntity
  8
M79
  6
CONTINUOUS
370
25
 62
     7
100
AcDbLine
 10
406.8
 20
33.4
 11
407.594722
 21
33.4
  0
LINE
  5
1B0
100
AcDbEntity
  8
M79
  6
CONTINUOUS
370
25
 62
     7
100
AcDbLine
 10
406.8
 20
33.7
 11
407.578709
 21
33.7
  0
LINE
  5
1B1
100
AcDbEntity
  8
M79
  6
CONTINUOUS
370
25
 62
     7
100
AcDbLine
 10
308.078572
 20
28.751659
 11
313.342243
 21
27.501659
  0
LINE
  5
1B2
100
AcDbEntity
  8
M79
  6
CONTINUOUS
370
25
 62
     7
100
AcDbLine
 10
308.078572
 20
31.251659
 11
308.078572
 21
28.751659
  0
CIRCLE
  5
1B3
100
AcDbEntity
  8
M79
  6
CONTINUOUS
370
25
 62
     7
100
AcDbCircle
 10
302.493366
 20
30.001659
 40
1.25
  0
LINE
  5
1B4
100
AcDbEntity
  8
M79
  6
CONTINUOUS
370
25
 62
     7
100
AcDbLine
 10
313.342243
 20
32.501659
 11
313.342243
 21
27.501659
  0
LINE
  5
1B5
100
AcDbEntity
  8
M79
  6
DASHDOT
370
13
 62
     7
100
AcDbLine
 10
299.09737
 20
30.001659
 11
315.354218
 21
30.001659
  0
LINE
  5
1B6
100
AcDbEntity
  8
M79
  6
DASHDOT
370
13
 62
     7
100
AcDbLine
 10
302.493366
 20
26.945247
 11
302.493366
 21
33.62408
  0
LINE
  5
1B7
100
AcDbEntity
  8
M79
  6
CONTINUOUS
370
25
 62
     7
100
AcDbLine
 10
308.078572
 20
31.251659
 11
313.342243
 21
32.501659
  0
CIRCLE
  5
1B8
100
AcDbEntity
  8
M79
  6
CONTINUOUS
370
25
 62
     7
100
AcDbCircle
 10
302.493366
 20
30.001659
 40
2.5
  0
TEXT
  5
1B9
100
AcDbEntity
  8
M79
 62
     7
100
AcDbText
 10
298.321647
 20
17.727871
 40
4.2
  1
Ｈ
 41
0.515873
  7
STANDARD
100
AcDbText
  0
TEXT
  5
1BA
100
AcDbEntity
  8
M79
 62
     7
100
AcDbText
 10
322.679892
 20
14.006361
 40
2.9
  1
ｐ
 41
0.603448
  7
STANDARD
100
AcDbText
  0
TEXT
  5
1BB
100
AcDbEntity
  8
M79
 62
     7
100
AcDbText
 10
321.279813
 20
13.906359
 40
2.9
  1
ａ
 41
0.603448
  7
STANDARD
100
AcDbText
  0
TEXT
  5
1BC
100
AcDbEntity
  8
M79
 62
     7
100
AcDbText
 10
319.879855
 20
13.906359
 40
2.9
  1
Ｊ
 41
0.603448
  7
STANDARD
100
AcDbText
  0
TEXT
  5
1BD
100
AcDbEntity
  8
M79
 62
     7
100
AcDbText
 10
316.779853
 20
13.906361
 40
2.9
  1
ｏ
 41
0.603448
  7
STANDARD
100
AcDbText
  0
TEXT
  5
1BE
100
AcDbEntity
  8
M79
 62
     7
100
AcDbText
 10
315.379773
 20
13.906361
 40
2.9
  1
ｙ
 41
0.603448
  7
STANDARD
100
AcDbText
  0
TEXT
  5
1BF
100
AcDbEntity
  8
M79
 62
     7
100
AcDbText
 10
313.87987
 20
13.906361
 40
2.9
  1
ｋ
 41
0.603448
  7
STANDARD
100
AcDbText
  0
TEXT
  5
1C0
100
AcDbEntity
  8
M79
 62
     7
100
AcDbText
 10
312.379815
 20
13.906361
 40
2.9
  1
ｏ
 41
0.603448
  7
STANDARD
100
AcDbText
  0
TEXT
  5
1C1
100
AcDbEntity
  8
M79
 62
     7
100
AcDbText
 10
310.979857
 20
13.906361
 40
2.9
  1
Ｔ
 41
0.603448
  7
STANDARD
100
AcDbText
  0
TEXT
  5
1C2
100
AcDbEntity
  8
M79
 62
     7
100
AcDbText
 10
324.279801
 20
13.906359
 40
2.9
  1
ａ
 41
0.603448
  7
STANDARD
100
AcDbText
  0
TEXT
  5
1C3
100
AcDbEntity
  8
M79
 62
     7
100
AcDbText
 10
325.739766
 20
13.906359
 40
2.9
  1
ｎ
 41
0.603448
  7
STANDARD
100
AcDbText
  0
TEXT
  5
1C4
100
AcDbEntity
  8
M79
 62
     7
100
AcDbText
 10
299.621647
 20
17.727871
 40
4.2
  1
ｉ
 41
0.515873
  7
STANDARD
100
AcDbText
  0
TEXT
  5
1C5
100
AcDbEntity
  8
M79
 62
     7
100
AcDbText
 10
302.221647
 20
17.727871
 40
4.2
  1
ａ
 41
0.515873
  7
STANDARD
100
AcDbText
  0
TEXT
  5
1C6
100
AcDbEntity
  8
M79
 62
     7
100
AcDbText
 10
300.921647
 20
17.727871
 40
4.2
  1
ｔ
 41
0.515873
  7
STANDARD
100
AcDbText
  0
TEXT
  5
1C7
100
AcDbEntity
  8
M79
 62
     7
100
AcDbText
 10
303.521647
 20
17.727871
 40
4.2
  1
ｃ
 41
0.515873
  7
STANDARD
100
AcDbText
  0
TEXT
  5
1C8
100
AcDbEntity
  8
M79
 62
     7
100
AcDbText
 10
306.121647
 20
17.727871
 40
4.2
  1
ｉ
 41
0.515873
  7
STANDARD
100
AcDbText
  0
TEXT
  5
1C9
100
AcDbEntity
  8
M79
 62
     7
100
AcDbText
 10
304.821647
 20
17.727871
 40
4.2
  1
ｈ
 41
0.515873
  7
STANDARD
100
AcDbText
  0
TEXT
  5
1CA
100
AcDbEntity
  8
M79
 62
     7
100
AcDbText
 10
308.421647
 20
17.727871
 40
4.2
  1
Ｇ
 41
0.515873
  7
STANDARD
100
AcDbText
  0
TEXT
  5
1CB
100
AcDbEntity
  8
M79
 62
     7
100
AcDbText
 10
309.721647
 20
17.727871
 40
4.2
  1
ｌ
 41
0.515873
  7
STANDARD
100
AcDbText
  0
TEXT
  5
1CC
100
AcDbEntity
  8
M79
 62
     7
100
AcDbText
 10
311.021647
 20
17.727871
 40
4.2
  1
ｏ
 41
0.515873
  7
STANDARD
100
AcDbText
  0
TEXT
  5
1CD
100
AcDbEntity
  8
M79
 62
     7
100
AcDbText
 10
312.321647
 20
17.727871
 40
4.2
  1
ｂ
 41
0.515873
  7
STANDARD
100
AcDbText
  0
TEXT
  5
1CE
100
AcDbEntity
  8
M79
 62
     7
100
AcDbText
 10
313.621647
 20
17.727871
 40
4.2
  1
ａ
 41
0.515873
  7
STANDARD
100
AcDbText
  0
TEXT
  5
1CF
100
AcDbEntity
  8
M79
 62
     7
100
AcDbText
 10
314.921648
 20
17.727871
 40
4.2
  1
ｌ
 41
0.515873
  7
STANDARD
100
AcDbText
  0
TEXT
  5
1D0
100
AcDbEntity
  8
M79
 62
     7
100
AcDbText
 10
317.221647
 20
17.727871
 40
4.2
  1
Ｌ
 41
0.515873
  7
STANDARD
100
AcDbText
  0
TEXT
  5
1D1
100
AcDbEntity
  8
M79
 62
     7
100
AcDbText
 10
318.521646
 20
17.727871
 40
4.2
  1
ｉ
 41
0.515873
  7
STANDARD
100
AcDbText
  0
TEXT
  5
1D2
100
AcDbEntity
  8
M79
 62
     7
100
AcDbText
 10
319.821647
 20
17.727871
 40
4.2
  1
ｆ
 41
0.515873
  7
STANDARD
100
AcDbText
  0
TEXT
  5
1D3
100
AcDbEntity
  8
M79
 62
     7
100
AcDbText
 10
321.121646
 20
17.727871
 40
4.2
  1
ｅ
 41
0.515873
  7
STANDARD
100
AcDbText
  0
TEXT
  5
1D4
100
AcDbEntity
  8
M79
 62
     7
100
AcDbText
 10
323.421646
 20
17.727871
 40
4.2
  1
Ｓ
 41
0.515873
  7
STANDARD
100
AcDbText
  0
TEXT
  5
1D5
100
AcDbEntity
  8
M79
 62
     7
100
AcDbText
 10
324.721645
 20
17.727871
 40
4.2
  1
ｏ
 41
0.515873
  7
STANDARD
100
AcDbText
  0
TEXT
  5
1D6
100
AcDbEntity
  8
M79
 62
     7
100
AcDbText
 10
326.021646
 20
17.727871
 40
4.2
  1
ｌ
 41
0.515873
  7
STANDARD
100
AcDbText
  0
TEXT
  5
1D7
100
AcDbEntity
  8
M79
 62
     7
100
AcDbText
 10
327.321645
 20
17.727871
 40
4.2
  1
ｕ
 41
0.515873
  7
STANDARD
100
AcDbText
  0
TEXT
  5
1D8
100
AcDbEntity
  8
M79
 62
     7
100
AcDbText
 10
328.621646
 20
17.727871
 40
4.2
  1
ｔ
 41
0.515873
  7
STANDARD
100
AcDbText
  0
TEXT
  5
1D9
100
AcDbEntity
  8
M79
 62
     7
100
AcDbText
 10
329.921646
 20
17.727871
 40
4.2
  1
ｉ
 41
0.515873
  7
STANDARD
100
AcDbText
  0
TEXT
  5
1DA
100
AcDbEntity
  8
M79
 62
     7
100
AcDbText
 10
331.221645
 20
17.727871
 40
4.2
  1
ｏ
 41
0.515873
  7
STANDARD
100
AcDbText
  0
TEXT
  5
1DB
100
AcDbEntity
  8
M79
 62
     7
100
AcDbText
 10
332.521644
 20
17.727871
 40
4.2
  1
ｎ
 41
0.515873
  7
STANDARD
100
AcDbText
  0
TEXT
  5
1DC
100
AcDbEntity
  8
M79
 62
     7
100
AcDbText
 10
333.821643
 20
17.727871
 40
4.2
  1
ｓ
 41
0.515873
  7
STANDARD
100
AcDbText
  0
TEXT
  5
1DD
100
AcDbEntity
  8
M79
 62
     7
100
AcDbText
 10
335.121643
 20
17.727871
 40
4.2
  1
，
 41
0.515873
  7
STANDARD
100
AcDbText
  0
TEXT
  5
1DE
100
AcDbEntity
  8
M79
 62
     7
100
AcDbText
 10
336.121643
 20
17.727871
 40
4.2
  1
Ｉ
 41
0.515873
  7
STANDARD
100
AcDbText
  0
TEXT
  5
1DF
100
AcDbEntity
  8
M79
 62
     7
100
AcDbText
 10
337.421642
 20
17.727871
 40
4.2
  1
ｎ
 41
0.515873
  7
STANDARD
100
AcDbText
  0
TEXT
  5
1E0
100
AcDbEntity
  8
M79
 62
     7
100
AcDbText
 10
340.02164
 20
17.727871
 40
4.2
  1
．
 41
0.515873
  7
STANDARD
100
AcDbText
  0
TEXT
  5
1E1
100
AcDbEntity
  8
M79
 62
     7
100
AcDbText
 10
338.721641
 20
17.727871
 40
4.2
  1
ｃ
 41
0.515873
  7
STANDARD
100
AcDbText
  0
ENDSEC
  0
SECTION
  2
OBJECTS
  0
DICTIONARY
  5
C
100
AcDbDictionary
  3
ACAD_GROUP
350
D
  3
ACAD_MLINESTYLE
350
E
  0
DICTIONARY
  5
D
102
{ACAD_REACTORS
330
C
102
}
100
AcDbDictionary
  0
DICTIONARY
  5
E
102
{ACAD_REACTORS
330
C
102
}
100
AcDbDictionary
  3
STANDARD
350
13
  0
DICTIONARY
  5
52
330
51
100
AcDbDictionary
280
     1
281
     1
  3
ACAD_DIMASSOC
360
53
  0
DIMASSOC
  5
53
102
{ACAD_REACTORS
330
52
102
}
330
52
100
AcDbDimAssoc
330
51
 90
        1
 70
     0
 71
     0
  1
AcDbOsnapPointRef
 72
     10
331
54
 73
     2
 91
        0
 40
0.702875
 10
131.562546
 20
195.429520
 30
0.000000
 75
     0
  0
DICTIONARY
  5
57
330
56
100
AcDbDictionary
280
     1
281
     1
  3
ACAD_DIMASSOC
360
58
  0
DIMASSOC
  5
58
102
{ACAD_REACTORS
330
57
102
}
330
57
100
AcDbDimAssoc
330
56
 90
        1
 70
     0
 71
     0
  1
AcDbOsnapPointRef
 72
     10
331
59
 73
     2
 91
        0
 40
0.515363
 10
112.621803
 20
195.429520
 30
0.000000
 75
     0
  0
DICTIONARY
  5
5B
330
5A
100
AcDbDictionary
280
     1
281
     1
  3
ACAD_DIMASSOC
360
5C
  0
DIMASSOC
  5
5C
102
{ACAD_REACTORS
330
5B
102
}
330
5B
100
AcDbDimAssoc
330
5A
 90
        1
 70
     0
 71
     0
  1
AcDbOsnapPointRef
 72
     10
331
5D
 73
     2
 91
        0
 40
1.545715
 10
74.123749
 20
208.692230
 30
0.000000
 75
     0
  0
MLINESTYLE
  5
13
102
{ACAD_REACTORS
330
E
102
}
100
AcDbMlineStyle
  2
STANDARD
 70
     0
  3

 62
     0
 51
90.0
 52
90.0
 71
     2
 49
0.5
 62
   256
  6
BYLAYER
 49
-0.5
 62
   256
  6
BYLAYER
  0
ENDSEC
  0
EOF
