  0
SECTION
  2
HEADER
  9
$ACADVER
  1
AC1015
  9
$INSBASE
 10
0.000000
 20
0.000000
 30
0.0
  9
$VIEWCTR
 10
7.531722
 20
4.5
  9
$VIEWSIZE
 40
9.0
  9
$SNAPMODE
 70
     0
  9
$SNAPUNIT
 10
1.0
 20
1.0
  9
$SNAPBASE
 10
0.0
 20
0.0
  9
$SNAPANG
 50
0.0
  9
$SNAPSTYLE
 70
     0
  9
$SNAPISOPAIR
 70
     0
  9
$GRIDMODE
 70
     0
  9
$GRIDUNIT
 10
0.0
 20
0.0
  9
$ORTHOMODE
 70
     0
  9
$REGENMODE
 70
     1
  9
$FILLMODE
 70
     1
  9
$QTEXTMODE
 70
     0
  9
$DRAGMODE
 70
     2
  9
$LTSCALE
  40
     1.000000
  9
$OSMODE
 70
     0
  9
$ATTMODE
 70
     1
  9
$TEXTSIZE
 40
0.2
  9
$TRACEWID
 40
0.05
  9
$TEXTSTYLE
  7
STANDARD
  9
$CELTYPE
  6
BYLAYER
  9
$CECOLOR
 62
   256
  9
$DIMSCALE
 40
1.0
  9
$DIMASZ
 40
0.18
  9
$DIMEXO
 40
0.0625
  9
$DIMDLI
 40
0.38
  9
$DIMRND
 40
0.0
  9
$DIMDLE
 40
0.0
  9
$DIMEXE
 40
0.18
  9
$DIMTP
 40
0.0
  9
$DIMTM
 40
0.0
  9
$DIMTXT
 40
0.18
  9
$DIMCEN
 40
0.09
  9
$DIMTSZ
 40
0.0
  9
$DIMADEC
 70
     0
  9
$DIMALTRND
 40
0.000000
  9
$DIMAZIN
 70
     0
  9
$DIMDSEP
 70
    46
  9
$DIMATFIT
 70
     3
  9
$DIMFRAC
 70
     0
  9
$DIMLDRBLK
  1

  9
$DIMLUNIT
 70
     2
  9
$DIMLWD
 70
   13
  9
$DIMLWE
 70
   13
  9
$DIMTMOVE
 70
     0
  9
$CELWEIGHT
370
    25
  9
$LWDISPLAY
290
    1
  9
$EXTNAMES
290
    1
  9
$DIMTOL
 70
     0
  9
$DIMLIM
 70
     0
  9
$DIMTIH
 70
     1
  9
$DIMTOH
 70
     1
  9
$DIMSE1
 70
     0
  9
$DIMSE2
 70
     0
  9
$DIMTAD
 70
     0
  9
$DIMZIN
 70
     0
  9
$DIMBLK
  1

  9
$LUNITS
 70
     2
  9
$LUPREC
 70
     4
  9
$AXISMODE
 70
     0
  9
$AXISUNIT
 10
0.0
 20
0.0
  9
$SKETCHINC
 40
0.1
  9
$FILLETRAD
 40
0.0
  9
$AUNITS
 70
     0
  9
$AUPREC
 70
     0
  9
$MENU
  1
ACAD
  9
$ELEVATION
 40
0.0
  9
$THICKNESS
 40
0.0
  9
$VIEWDIR
 10
0.0
 20
0.0
 30
1.0
  9
$LIMCHECK
 70
     0
  9
$BLIPMODE
 70
     1
  9
$CHAMFERA
 40
0.0
  9
$CHAMFERB
 40
0.0
  9
$FASTZOOM
 70
     1
  9
$SKPOLY
 70
     0
  9
$TDCREATE
 40
0000000.0000000000
  9
$TDUPDATE
 40
0000000.0000000000
  9
$TDINDWG
 40
0.0000000000
  9
$TDUSRTIMER
 40
0.0000000000
  9
$USRTIMER
 70
     1
  9
$ANGBASE
 50
0.0
  9
$ANGDIR
 70
     0
  9
$PDMODE
 70
     0
  9
$PDSIZE
 40
0.0
  9
$PLINEWID
 40
0.0
  9
$COORDS
 70
     0
  9
$USERI1
 70
     0
  9
$USERI2
 70
     0
  9
$USERI3
 70
     0
  9
$USERI4
 70
     0
  9
$USERI5
 70
     0
  9
$USERR1
 40
0.0
  9
$USERR2
 40
0.0
  9
$USERR3
 40
0.0
  9
$USERR4
 40
0.0
  9
$USERR5
 40
0.0
  9
$CLAYER
  8
M0
  9
$EXTMIN
 10
0.0
 20
0.0
  9
$EXTMAX
 10
5250.000117
 20
3712.500083
  9
$LIMMIN
 10
0.0
 20
0.0
  9
$LIMMAX
 10
420.0
 20
297.0
  9
$HANDSEED
  5
35F
  0
ENDSEC
  0
SECTION
  2
CLASSES
  0
CLASS
  1
DIMASSOC
  2
AcDbDimAssoc
  3
"AcDbDimAssoc|Product Desc:     AcDim ARX App For Dimension|Company:          Autodesk, Inc.|WEB Address:      www.autodesk.com"
 90
        0
280
     0
281
     0
  0
ENDSEC
  0
SECTION
  2
TABLES
  0
TABLE
  2
VPORT
  5
8
100
AcDbSymbolTable
 70
     2
  0
VPORT
  5
14
100
AcDbSymbolTableRecord
100
AcDbViewportTableRecord
  2
*ACTIVE
 70
     0
 10
0.0
 20
0.0
 11
1.0
 21
1.0
 12
484.0
 22
297.0
 13
0.0
 23
0.0
 14
1.0
 24
1.0
 15
0.0
 25
0.0
 16
0.0
 26
0.0
 36
1.0
 17
0.0
 27
0.0
 37
0.0
 40
594.0
 41
2.0
 42
50.0
 43
0.0
 44
0.0
 50
0.0
 51
0.0
 71
     0
 72
   100
 73
     1
 74
     1
 75
     0
 76
     0
 77
     0
 78
     0
  0
ENDTAB
  0
TABLE
  2
LTYPE
  5
5
100
AcDbSymbolTable
 70
     5
  0
LTYPE
  5
15
100
AcDbSymbolTableRecord
100
AcDbLinetypeTableRecord
  2
BYBLOCK
 70
     0
  3

 72
    65
 73
     0
 40
0.0
  0
LTYPE
  5
16
100
AcDbSymbolTableRecord
100
AcDbLinetypeTableRecord
  2
BYLAYER
 70
     0
  3

 72
    65
 73
     0
 40
0.0
  0
LTYPE
  5
17
100
AcDbSymbolTableRecord
100
AcDbLinetypeTableRecord
  2
CONTINUOUS
 70
    64
  3
Solid line
 72
    65
 73
     0
 40
0.0
  0
LTYPE
  5
18
100
AcDbSymbolTableRecord
100
AcDbLinetypeTableRecord
  2
DASHED
 70
    64
  3
__ __ __ __ __ __ __ __ __ __ __ __ __ __ __ __
 72
    65
 73
     2
 40
0.75
 49
0.5
 74
     0
 49
-0.25
 74
     0
  0
LTYPE
  5
19
100
AcDbSymbolTableRecord
100
AcDbLinetypeTableRecord
  2
DASHDOT
 70
    64
  3
__ . __ . __ . __ . __ . __ . __ . __ . __ . __
 72
    65
 73
     4
 40
1.0
 49
0.5
 74
     0
 49
-0.25
 74
     0
 49
0.0
 74
     0
 49
-0.25
 74
     0
  0
LTYPE
  5
1A
100
AcDbSymbolTableRecord
100
AcDbLinetypeTableRecord
  2
DIVIDE
 70
    64
  3
____ . . ____ . . ____ . . ____ . . ____ . . __
 72
    65
 73
     6
 40
1.25
 49
0.5
 74
     0
 49
-0.25
 74
     0
 49
0.0
 74
     0
 49
-0.25
 74
     0
 49
0.0
 74
     0
 49
-0.25
 74
     0
  0
LTYPE
  5
1B
100
AcDbSymbolTableRecord
100
AcDbLinetypeTableRecord
  2
DOT
 70
    64
  3
. . . . . . . . . . . . . . . . . . . . . . . .
 72
    65
 73
     2
 40
0.25
 49
0.0
 74
     0
 49
-0.25
 74
     0
  0
ENDTAB
  0
TABLE
  2
LAYER
  5
2
100
AcDbSymbolTable
 70
   102
  0
LAYER
  5
F
100
AcDbSymbolTableRecord
100
AcDbLayerTableRecord
  2
0
 70
     0
 62
     7
  6
CONTINUOUS
370
     -3
390
F
  0
LAYER
  5
1C
100
AcDbSymbolTableRecord
100
AcDbLayerTableRecord
  2
M2
 70
     0
 62
     3
  6
CONTINUOUS
370
     -3
390
F
  0
LAYER
  5
1D
100
AcDbSymbolTableRecord
100
AcDbLayerTableRecord
  2
M69
 70
     0
 62
     7
  6
CONTINUOUS
370
     -3
390
F
  0
LAYER
  5
1E
100
AcDbSymbolTableRecord
100
AcDbLayerTableRecord
  2
M71
 70
     0
 62
     7
  6
CONTINUOUS
370
     -3
390
F
  0
LAYER
  5
1F
100
AcDbSymbolTableRecord
100
AcDbLayerTableRecord
  2
M73
 70
     0
 62
     7
  6
CONTINUOUS
370
     -3
390
F
  0
LAYER
  5
20
100
AcDbSymbolTableRecord
100
AcDbLayerTableRecord
  2
M74
 70
     0
 62
     7
  6
CONTINUOUS
370
     -3
390
F
  0
LAYER
  5
21
100
AcDbSymbolTableRecord
100
AcDbLayerTableRecord
  2
M75
 70
     0
 62
     7
  6
CONTINUOUS
370
     -3
390
F
  0
LAYER
  5
22
100
AcDbSymbolTableRecord
100
AcDbLayerTableRecord
  2
M79
 70
     0
 62
     7
  6
CONTINUOUS
370
     -3
390
F
  0
LAYER
  5
23
100
AcDbSymbolTableRecord
100
AcDbLayerTableRecord
  2
DD0
 70
     0
 62
     7
  6
CONTINUOUS
370
     -3
390
F
  0
ENDTAB
  0
TABLE
  2
STYLE
  5
3
100
AcDbSymbolTable
 70
     2
  0
STYLE
  5
10
100
AcDbSymbolTableRecord
100
AcDbTextStyleTableRecord
  2
STANDARD
 70
     0
 40
0.0
 41
1.0
 50
0.0
 71
     0
 42
0.2
  3
txt
  4
BIGFONT
  0
ENDTAB
  0
TABLE
  2
VIEW
  5
6
100
AcDbSymbolTable
 70
     0
  0
ENDTAB
  0
TABLE
  2
UCS
  5
7
100
AcDbSymbolTable
 70
     0
  0
ENDTAB
  0
TABLE
  2
APPID
  5
9
100
AcDbSymbolTable
 70
     1
  0
APPID
  5
11
100
AcDbSymbolTableRecord
100
AcDbRegAppTableRecord
  2
ACAD
 70
     0
  0
ENDTAB
  0
TABLE
  2
DIMSTYLE
  5
A
100
AcDbSymbolTable
 70
     2
100
AcDbDimStyleTable
 71
     1
  0
DIMSTYLE
105
65
100
AcDbSymbolTableRecord
100
AcDbDimStyleTableRecord
  2
STANDARD
 70
     0
  3

  4

  5

  6
_OPEN
  7
_OPEN
 40
1.0
 41
37.500001
 42
0.0
 43
8.0
 44
1.0
 45
0.0
 46
0.0
 47
0.0
 48
0.0
140
25.000001
141
0.09
142
0.0
143
0.03937
144
1.0
145
0.0
146
1.0
147
0.7
148
0.000000
 71
     0
 72
     0
 73
     1
 74
     1
 75
     0
 76
     0
 77
     3
 78
     8
170
     0
171
     2
172
     0
173
     1
174
     0
175
     0
176
     0
177
     0
178
     0
270
     2
271
     2
272
     4
273
     2
274
     2
340
10
275
     0
278
    46
280
     0
281
     0
282
     0
283
     1
284
     0
285
     0
286
     0
287
     3
288
     0
371
   13
372
   13
  0
DIMSTYLE
105
66
100
AcDbSymbolTableRecord
100
AcDbDimStyleTableRecord
  2
LEADSTYL
 70
     0
  3

  4

  5

  6
_OPEN
  7
_OPEN
 40
1.0
 41
37.500001
 42
0.0625
 43
0.38
 44
0.18
 45
0.0
 46
0.0
 47
0.0
 48
0.0
140
40.000001
141
0.09
142
0.0
143
25.4
144
1.0
145
0.0
146
1.0
147
1.0
 71
     0
 72
     0
 73
     1
 74
     1
 75
     0
 76
     0
 77
     0
 78
     0
170
     0
171
     2
172
     0
173
     1
174
     0
175
     0
176
     0
177
     0
178
     0
270
     2
271
     4
272
     4
273
     2
274
     2
340
10
275
     0
280
     0
281
     0
282
     0
283
     1
284
     0
285
     0
286
     0
287
     3
288
     0
  0
ENDTAB
  0
TABLE
  2
BLOCK_RECORD
  5
1
100
AcDbSymbolTable
 70
     6
  0
BLOCK_RECORD
  5
24
100
AcDbSymbolTableRecord
100
AcDbBlockTableRecord
  2
*MODEL_SPACE
  0
BLOCK_RECORD
  5
27
100
AcDbSymbolTableRecord
100
AcDbBlockTableRecord
  2
*PAPER_SPACE
  0
BLOCK_RECORD
  5
2A
100
AcDbSymbolTableRecord
100
AcDbBlockTableRecord
  2
_NONE
  0
BLOCK_RECORD
  5
2E
100
AcDbSymbolTableRecord
100
AcDbBlockTableRecord
  2
_OPEN
  0
BLOCK_RECORD
  5
34
100
AcDbSymbolTableRecord
100
AcDbBlockTableRecord
  2
_CLOSED
  0
BLOCK_RECORD
  5
3B
100
AcDbSymbolTableRecord
100
AcDbBlockTableRecord
  2
_ORIGIN
  0
BLOCK_RECORD
  5
40
100
AcDbSymbolTableRecord
100
AcDbBlockTableRecord
  2
_DOT
  0
BLOCK_RECORD
  5
48
100
AcDbSymbolTableRecord
100
AcDbBlockTableRecord
  2
_OBLIQUE
  0
ENDTAB
  0
ENDSEC
  0
SECTION
  2
BLOCKS
  0
BLOCK
  5
25
100
AcDbEntity
  8
0
100
AcDbBlockBegin
  2
*MODEL_SPACE
 70
     0
 10
0.0
 20
0.0
 30
0.0
  3
*MODEL_SPACE
  1

  0
ENDBLK
  5
26
100
AcDbEntity
  8
0
100
AcDbBlockEnd
  0
BLOCK
  5
28
100
AcDbEntity
 67
     1
  8
0
100
AcDbBlockBegin
  2
*PAPER_SPACE
 70
     0
 10
0.0
 20
0.0
 30
0.0
  3
*PAPER_SPACE
  1

  0
ENDBLK
  5
29
100
AcDbEntity
 67
     1
  8
0
100
AcDbBlockEnd
  0
BLOCK
  5
2B
100
AcDbEntity
  8
0
100
AcDbBlockBegin
  2
_NONE
 70
     0
 10
0.0
 20
0.0
  0
CIRCLE
  5
2C
100
AcDbEntity
  8
0
 62
     0
370
13
100
AcDbCircle
 10
0.0
 20
0.0
 40
0.25
  0
ENDBLK
  5
2D
100
AcDbEntity
  8
0
100
AcDbBlockEnd
  0
BLOCK
  5
2F
100
AcDbEntity
  8
0
100
AcDbBlockBegin
  2
_OPEN
 70
     0
 10
0.0
 20
0.0
  0
LINE
  5
30
100
AcDbEntity
  8
0
 62
     0
370
13
100
AcDbLine
 10
-0.965926
 20
0.258819
 11
0.0
 21
0.0
  0
LINE
  5
31
100
AcDbEntity
  8
0
 62
     0
370
13
100
AcDbLine
 10
0.0
 20
0.0
 11
-0.965926
 21
-0.258819
  0
LINE
  5
32
100
AcDbEntity
  8
0
 62
     0
370
13
100
AcDbLine
 10
0.0
 20
0.0
 11
-1.0
 21
0.0
  0
ENDBLK
  5
33
100
AcDbEntity
  8
0
100
AcDbBlockEnd
  0
BLOCK
  5
35
100
AcDbEntity
  8
0
100
AcDbBlockBegin
  2
_CLOSED
 70
     0
 10
0.0
 20
0.0
  0
LINE
  5
36
100
AcDbEntity
  8
0
 62
     0
370
13
100
AcDbLine
 10
-0.965926
 20
0.258819
 11
0.0
 21
0.0
  0
LINE
  5
37
100
AcDbEntity
  8
0
 62
     0
370
13
100
AcDbLine
 10
0.0
 20
0.0
 11
-0.965926
 21
-0.258819
  0
LINE
  5
38
100
AcDbEntity
  8
0
 62
     0
370
13
100
AcDbLine
 10
-0.965926
 20
0.258819
 11
-0.965926
 21
-0.258819
  0
LINE
  5
39
100
AcDbEntity
  8
0
 62
     0
370
13
100
AcDbLine
 10
0.0
 20
0.0
 11
-1.0
 21
0.0
  0
ENDBLK
  5
3A
100
AcDbEntity
  8
0
100
AcDbBlockEnd
  0
BLOCK
  5
3C
100
AcDbEntity
  8
0
100
AcDbBlockBegin
  2
_ORIGIN
 70
     0
 10
0.0
 20
0.0
  0
CIRCLE
  5
3D
100
AcDbEntity
  8
0
 62
     0
370
13
100
AcDbCircle
 10
0.0
 20
0.0
 40
0.5
  0
LINE
  5
3E
100
AcDbEntity
  8
0
 62
     0
370
13
100
AcDbLine
 10
0.0
 20
0.0
 11
-1.0
 21
0.0
  0
ENDBLK
  5
3F
100
AcDbEntity
  8
0
100
AcDbBlockEnd
  0
BLOCK
  5
41
100
AcDbEntity
  8
0
100
AcDbBlockBegin
  2
_DOT
 70
     0
 10
0.0
 20
0.0
  0
POLYLINE
  5
42
100
AcDbEntity
  8
0
 62
     0
100
AcDb2dPolyline
 66
     1
 70
     1
 40
0.5
 41
0.5
  0
VERTEX
  5
43
100
AcDbEntity
  8
0
 62
     0
100
AcDbVertex
100
AcDb2dVertex
 10
-0.25
 20
0.0
 42
1.0
  0
VERTEX
  5
44
100
AcDbEntity
  8
0
 62
     0
100
AcDbVertex
100
AcDb2dVertex
 10
0.25
 20
0.0
 42
1.0
  0
SEQEND
  5
45
100
AcDbEntity
  8
0
 62
     0
  0
LINE
  5
46
100
AcDbEntity
  8
0
 62
     0
370
13
100
AcDbLine
 10
-0.5
 20
0.0
 11
-1.0
 21
0.0
  0
ENDBLK
  5
47
100
AcDbEntity
  8
0
100
AcDbBlockEnd
  0
BLOCK
  5
49
100
AcDbEntity
  8
0
100
AcDbBlockBegin
  2
_OBLIQUE
 70
     0
 10
0.0
 20
0.0
  0
LINE
  5
4A
100
AcDbEntity
  8
0
 62
     0
370
13
100
AcDbLine
 10
-0.353553
 20
-0.353553
 11
0.353553
 21
0.353553
  0
ENDBLK
  5
4B
100
AcDbEntity
  8
0
100
AcDbBlockEnd
  0
ENDSEC
  0
SECTION
  2
ENTITIES
  0
LEADER
  5
4C
102
{ACAD_XDICTIONARY
360
4D
102
}
102
{ACAD_REACTORS
330
4E
102
}
330
1F
100
AcDbEntity
  8
DD0
100
AcDbLeader
  3
LEADSTYL
 76
     3
 10
1627.899779
 20
1242.477159
 10
1652.306212
 20
1334.575778
 10
1997.306296
 20
1334.575778
340
50
 77
     7
1001
ACAD
1000
DSTYLE
1002
{
1070
   341
1005
2E
1070
   372
1070
   13
1070
   371
1070
   13
1002
}
  0
TEXT
  5
50
100
AcDbEntity
  8
DD0
100
AcDbText
 10
1668.139492
 20
1347.075779
 40
40.000001
  1
制御電源用端子台
 41
0.833333
  7
STANDARD
100
AcDbText
  0
LEADER
  5
51
102
{ACAD_XDICTIONARY
360
52
102
}
102
{ACAD_REACTORS
330
53
102
}
330
1F
100
AcDbEntity
  8
DD0
100
AcDbLeader
  3
LEADSTYL
 76
     3
 10
1623.462141
 20
935.201952
 10
1650.087393
 20
833.132095
 10
1915.087552
 20
833.132095
340
55
 77
     7
1001
ACAD
1000
DSTYLE
1002
{
1070
   341
1005
2E
1070
   372
1070
   13
1070
   371
1070
   13
1002
}
  0
TEXT
  5
55
100
AcDbEntity
  8
DD0
100
AcDbText
 10
1665.920674
 20
845.632095
 40
40.000001
  1
通信用端子台
 41
0.833333
  7
STANDARD
100
AcDbText
  0
LEADER
  5
56
102
{ACAD_XDICTIONARY
360
57
102
}
102
{ACAD_REACTORS
330
58
102
}
330
1F
100
AcDbEntity
  8
DD0
100
AcDbLeader
  3
LEADSTYL
 76
     3
 10
3605.022511
 20
2045.512436
 10
3931.290524
 20
1937.669988
 10
4476.290612
 20
1937.669988
340
5A
 77
     7
1001
ACAD
1000
DSTYLE
1002
{
1070
   341
1005
2E
1070
   372
1070
   13
1070
   371
1070
   13
1002
}
  0
TEXT
  5
5A
100
AcDbEntity
  8
DD0
100
AcDbText
 10
3947.123994
 20
1950.169988
 40
40.000001
  1
制御リレー（昼間沸き増し）
 41
0.833333
  7
STANDARD
100
AcDbText
  0
LEADER
  5
5B
102
{ACAD_XDICTIONARY
360
5C
102
}
102
{ACAD_REACTORS
330
5D
102
}
330
1F
100
AcDbEntity
  8
DD0
100
AcDbLeader
  3
LEADSTYL
 76
     3
 10
3792.522515
 20
2243.223622
 10
3933.53738
 20
2294.898275
 10
4478.537469
 20
2294.898275
340
5F
 77
     7
1001
ACAD
1000
DSTYLE
1002
{
1070
   341
1005
2E
1070
   372
1070
   13
1070
   371
1070
   13
1002
}
  0
TEXT
  5
5F
100
AcDbEntity
  8
DD0
100
AcDbText
 10
3949.370851
 20
2307.398275
 40
40.000001
  1
制御リレー（夜間沸き上げ）
 41
0.833333
  7
STANDARD
100
AcDbText
  0
LEADER
  5
60
102
{ACAD_XDICTIONARY
360
61
102
}
102
{ACAD_REACTORS
330
62
102
}
330
1F
100
AcDbEntity
  8
DD0
100
AcDbLeader
  3
LEADSTYL
 76
     3
 10
2079.420899
 20
1242.492704
 10
2124.905824
 20
1329.028731
 10
2549.905834
 20
1329.028731
340
64
 77
     7
1001
ACAD
1000
DSTYLE
1002
{
1070
   341
1005
2E
1070
   372
1070
   13
1070
   371
1070
   13
1002
}
  0
TEXT
  5
64
100
AcDbEntity
  8
DD0
100
AcDbText
 10
2140.739105
 20
1341.528732
 40
40.000001
  1
制御電源用漏電遮断器
 41
0.833333
  7
STANDARD
100
AcDbText
  0
TEXT
  5
67
100
AcDbEntity
  8
M2
100
AcDbText
 10
4201.706369
 20
356.211578
 40
56.25
  1
ＲＨＫ－１８ＴＧＰ：ＲＨＫ－ＰＵ５６ＴＧ
 41
0.416667
  7
STANDARD
100
AcDbText
  0
TEXT
  5
68
100
AcDbEntity
  8
M2
100
AcDbText
 10
4789.923096
 20
356.211578
 40
56.25
  1
回路・配線図
 41
0.740741
  7
STANDARD
100
AcDbText
  0
LINE
  5
69
100
AcDbEntity
  8
M2
  6
CONTINUOUS
370
25
100
AcDbLine
 10
722.239237
 20
3239.991654
 11
1082.239245
 21
3239.991654
  0
TEXT
  5
6A
100
AcDbEntity
  8
M2
100
AcDbText
 10
719.947572
 20
3244.991654
 40
50.0
  1
貯湯ユニット
 41
1.041667
  7
STANDARD
100
AcDbText
  0
CIRCLE
  5
6B
100
AcDbEntity
  8
M2
  6
CONTINUOUS
370
13
100
AcDbCircle
 10
2576.245156
 20
863.657769
 40
11.52
  0
TEXT
  5
6C
100
AcDbEntity
  8
M2
100
AcDbText
 10
2466.339203
 20
419.098543
 40
43.200001
  1
）
 50
270.000001
 41
0.713333
  7
STANDARD
100
AcDbText
  0
TEXT
  5
6D
100
AcDbEntity
  8
M2
100
AcDbText
 10
2460.439011
 20
719.717127
 40
43.200001
  1
（
 50
270.000001
 41
0.713333
  7
STANDARD
100
AcDbText
  0
TEXT
  5
6E
100
AcDbEntity
  8
M2
100
AcDbText
 10
2618.061352
 20
675.201659
 40
50.0
  1
ア
 41
0.645833
  7
STANDARD
100
AcDbText
  0
TEXT
  5
6F
100
AcDbEntity
  8
M2
100
AcDbText
 10
2618.061352
 20
607.284978
 40
50.0
  1
｜
 41
0.645833
  7
STANDARD
100
AcDbText
  0
TEXT
  5
70
100
AcDbEntity
  8
M2
100
AcDbText
 10
2618.061352
 20
539.368297
 40
50.0
  1
ス
 41
0.645833
  7
STANDARD
100
AcDbText
  0
TEXT
  5
71
100
AcDbEntity
  8
M2
100
AcDbText
 10
2618.061352
 20
471.45164
 40
50.0
  1
端
 41
0.645833
  7
STANDARD
100
AcDbText
  0
TEXT
  5
72
100
AcDbEntity
  8
M2
100
AcDbText
 10
2618.061352
 20
403.534959
 40
50.0
  1
子
 41
0.645833
  7
STANDARD
100
AcDbText
  0
TEXT
  5
73
100
AcDbEntity
  8
M2
100
AcDbText
 10
2467.537209
 20
767.805726
 40
50.0
  1
　
 41
0.645833
  7
STANDARD
100
AcDbText
  0
TEXT
  5
74
100
AcDbEntity
  8
M2
100
AcDbText
 10
2467.537209
 20
699.889045
 40
50.0
  1
　
 41
0.645833
  7
STANDARD
100
AcDbText
  0
TEXT
  5
75
100
AcDbEntity
  8
M2
100
AcDbText
 10
2467.537209
 20
631.972412
 40
50.0
  1
現
 41
0.645833
  7
STANDARD
100
AcDbText
  0
TEXT
  5
76
100
AcDbEntity
  8
M2
100
AcDbText
 10
2467.537209
 20
564.055683
 40
50.0
  1
地
 41
0.645833
  7
STANDARD
100
AcDbText
  0
TEXT
  5
77
100
AcDbEntity
  8
M2
100
AcDbText
 10
2467.537209
 20
496.139026
 40
50.0
  1
工
 41
0.645833
  7
STANDARD
100
AcDbText
  0
TEXT
  5
78
100
AcDbEntity
  8
M2
100
AcDbText
 10
2467.537209
 20
428.222369
 40
50.0
  1
事
 41
0.645833
  7
STANDARD
100
AcDbText
  0
TEXT
  5
79
100
AcDbEntity
  8
M2
100
AcDbText
 10
2467.537209
 20
360.305688
 40
50.0
  1
　
 41
0.645833
  7
STANDARD
100
AcDbText
  0
TEXT
  5
7A
100
AcDbEntity
  8
M2
100
AcDbText
 10
2525.137613
 20
767.805726
 40
50.0
  1
ア
 41
0.645833
  7
STANDARD
100
AcDbText
  0
TEXT
  5
7B
100
AcDbEntity
  8
M2
100
AcDbText
 10
2525.137613
 20
699.889045
 40
50.0
  1
｜
 41
0.645833
  7
STANDARD
100
AcDbText
  0
TEXT
  5
7C
100
AcDbEntity
  8
M2
100
AcDbText
 10
2525.137613
 20
631.972412
 40
50.0
  1
ス
 41
0.645833
  7
STANDARD
100
AcDbText
  0
TEXT
  5
7D
100
AcDbEntity
  8
M2
100
AcDbText
 10
2525.137613
 20
564.055683
 40
50.0
  1
　
 41
0.645833
  7
STANDARD
100
AcDbText
  0
LINE
  5
7E
100
AcDbEntity
  8
M2
  6
CONTINUOUS
370
13
100
AcDbLine
 10
2553.205155
 20
406.012396
 11
2599.285157
 21
406.012396
  0
LINE
  5
7F
100
AcDbEntity
  8
M2
  6
CONTINUOUS
370
13
100
AcDbLine
 10
2576.245156
 20
852.137769
 11
2636.265607
 21
734.772928
  0
LINE
  5
80
100
AcDbEntity
  8
M2
  6
DASHED
370
13
100
AcDbLine
 10
2576.245156
 20
852.137769
 11
2576.245156
 21
417.532396
  0
LINE
  5
81
100
AcDbEntity
  8
M2
  6
CONTINUOUS
370
13
100
AcDbLine
 10
2587.765156
 20
394.492396
 11
2564.725156
 21
394.492396
  0
LINE
  5
82
100
AcDbEntity
  8
M2
  6
CONTINUOUS
370
13
100
AcDbLine
 10
2541.685155
 20
417.532396
 11
2610.805157
 21
417.532396
  0
LINE
  5
83
100
AcDbEntity
  8
M2
  6
DIVIDE
370
13
100
AcDbLine
 10
1674.862167
 20
1146.477148
 11
1578.862165
 21
1146.477148
  0
LINE
  5
84
100
AcDbEntity
  8
M2
  6
CONTINUOUS
370
13
100
AcDbLine
 10
3742.522551
 20
1007.292744
 11
1660.461742
 21
1007.292744
  0
LINE
  5
85
100
AcDbEntity
  8
M2
  6
CONTINUOUS
370
13
100
AcDbLine
 10
1641.262166
 20
1170.477148
 11
1612.462166
 21
1170.477148
  0
LINE
  5
86
100
AcDbEntity
  8
M2
  6
CONTINUOUS
370
13
100
AcDbLine
 10
1641.262166
 20
1218.477149
 11
1612.462166
 21
1218.477149
  0
LINE
  5
4F
102
{ACAD_REACTORS
330
4E
102
}
330
1F
100
AcDbEntity
  8
M2
  6
DIVIDE
370
13
100
AcDbLine
 10
1578.862165
 20
1242.47715
 11
1674.862167
 21
1242.47715
  0
LINE
  5
87
100
AcDbEntity
  8
M2
  6
CONTINUOUS
370
13
100
AcDbLine
 10
2020.135912
 20
2753.012608
 11
2020.135912
 21
2718.012608
  0
LINE
  5
88
100
AcDbEntity
  8
M2
  6
CONTINUOUS
370
13
100
AcDbLine
 10
1869.792172
 20
2994.323576
 11
1902.720172
 21
2961.395576
  0
LINE
  5
89
100
AcDbEntity
  8
M2
  6
CONTINUOUS
370
13
100
AcDbLine
 10
2020.135912
 20
2753.012608
 11
1752.076156
 21
2753.012608
  0
LINE
  5
8A
100
AcDbEntity
  8
M2
  6
CONTINUOUS
370
13
100
AcDbLine
 10
1869.792172
 20
2858.559073
 11
1902.720172
 21
2825.631073
  0
LINE
  5
8B
100
AcDbEntity
  8
M2
  6
CONTINUOUS
370
13
100
AcDbLine
 10
1869.792172
 20
2912.864875
 11
1902.720172
 21
2879.936874
  0
LINE
  5
8C
100
AcDbEntity
  8
M2
  6
CONTINUOUS
370
13
100
AcDbLine
 10
1869.792172
 20
2885.711974
 11
1902.720172
 21
2852.783973
  0
LINE
  5
8D
100
AcDbEntity
  8
M2
  6
CONTINUOUS
370
13
100
AcDbLine
 10
2976.608721
 20
1750.522799
 11
2976.608721
 21
1517.389318
  0
LINE
  5
8E
100
AcDbEntity
  8
M2
  6
CONTINUOUS
370
13
100
AcDbLine
 10
2949.728721
 20
1517.389318
 11
3003.488722
 21
1517.389318
  0
LINE
  5
8F
100
AcDbEntity
  8
M2
  6
CONTINUOUS
370
13
100
AcDbLine
 10
1641.262166
 20
1007.201982
 11
1612.462166
 21
1007.201982
  0
LINE
  5
54
102
{ACAD_REACTORS
330
53
102
}
330
1F
100
AcDbEntity
  8
M2
  6
DIVIDE
370
13
100
AcDbLine
 10
1674.862167
 20
935.20198
 11
1578.862165
 21
935.20198
  0
LINE
  5
90
100
AcDbEntity
  8
M2
  6
DOT
370
13
100
AcDbLine
 10
1593.262165
 20
1170.477148
 11
1494.825451
 21
1170.477148
  0
LINE
  5
91
100
AcDbEntity
  8
M2
  6
DOT
370
13
100
AcDbLine
 10
1593.262165
 20
1218.477149
 11
1494.825451
 21
1218.567912
  0
LINE
  5
92
100
AcDbEntity
  8
M2
  6
DIVIDE
370
13
100
AcDbLine
 10
1674.862167
 20
1079.201984
 11
1674.862167
 21
935.20198
  0
LINE
  5
93
100
AcDbEntity
  8
M2
  6
DIVIDE
370
13
100
AcDbLine
 10
1578.862165
 20
935.20198
 11
1578.862165
 21
1079.201984
  0
LINE
  5
94
100
AcDbEntity
  8
M2
  6
CONTINUOUS
370
13
100
AcDbLine
 10
1641.262166
 20
1055.201983
 11
1612.462166
 21
1055.201983
  0
LINE
  5
95
100
AcDbEntity
  8
M2
  6
DIVIDE
370
13
100
AcDbLine
 10
1578.862165
 20
1079.201984
 11
1674.862167
 21
1079.201984
  0
LINE
  5
96
100
AcDbEntity
  8
M2
  6
CONTINUOUS
370
13
100
AcDbLine
 10
3220.173977
 20
2241.494447
 11
3190.065076
 21
2241.494447
  0
LINE
  5
97
100
AcDbEntity
  8
M2
  6
CONTINUOUS
370
13
100
AcDbLine
 10
2950.191633
 20
1741.894436
 11
2950.191633
 21
1778.493524
  0
LINE
  5
98
100
AcDbEntity
  8
M2
  6
CONTINUOUS
370
13
100
AcDbLine
 10
3190.065076
 20
2152.951658
 11
3220.173977
 21
2152.951658
  0
LINE
  5
99
100
AcDbEntity
  8
M2
  6
CONTINUOUS
370
13
100
AcDbLine
 10
3255.02254
 20
1721.894435
 11
3255.02254
 21
2771.894459
  0
LINE
  5
9A
100
AcDbEntity
  8
M2
  6
CONTINUOUS
370
13
100
AcDbLine
 10
3255.02254
 20
2771.894459
 11
1467.5225
 21
2771.894459
  0
LINE
  5
9B
100
AcDbEntity
  8
M2
  6
CONTINUOUS
370
13
100
AcDbLine
 10
1467.5225
 20
2771.894459
 11
1467.5225
 21
1721.894435
  0
LINE
  5
9C
100
AcDbEntity
  8
M2
  6
CONTINUOUS
370
13
100
AcDbLine
 10
3220.173977
 20
2282.396498
 11
3190.065076
 21
2282.396498
  0
LINE
  5
9D
100
AcDbEntity
  8
M2
  6
CONTINUOUS
370
13
100
AcDbLine
 10
1467.5225
 20
1721.894435
 11
3255.02254
 21
1721.894435
  0
LINE
  5
9E
100
AcDbEntity
  8
M2
  6
CONTINUOUS
370
13
100
AcDbLine
 10
3220.173977
 20
2371.547625
 11
3190.065076
 21
2371.547625
  0
LINE
  5
9F
100
AcDbEntity
  8
M2
  6
CONTINUOUS
370
13
100
AcDbLine
 10
1972.911011
 20
2743.991071
 11
1972.911011
 21
2789.349684
  0
LINE
  5
A0
100
AcDbEntity
  8
M2
  6
CONTINUOUS
370
13
100
AcDbLine
 10
1857.456171
 20
2743.980921
 11
1857.456171
 21
2789.349684
  0
LINE
  5
A1
100
AcDbEntity
  8
M2
  6
CONTINUOUS
370
13
100
AcDbLine
 10
1867.311009
 20
2798.949684
 11
1838.765846
 21
2798.949684
  0
LINE
  5
A2
100
AcDbEntity
  8
M2
  6
CONTINUOUS
370
13
100
AcDbLine
 10
1963.056174
 20
2798.949684
 11
1992.111012
 21
2798.949684
  0
LINE
  5
A3
100
AcDbEntity
  8
M2
  6
CONTINUOUS
370
13
100
AcDbLine
 10
2950.191633
 20
1741.894436
 11
3105.933337
 21
1741.894436
  0
LINE
  5
A4
100
AcDbEntity
  8
M2
  6
CONTINUOUS
370
13
100
AcDbLine
 10
2475.656048
 20
2843.862748
 11
2442.728047
 21
2876.790749
  0
LINE
  5
A5
100
AcDbEntity
  8
M2
  6
CONTINUOUS
370
13
100
AcDbLine
 10
2238.779605
 20
2753.012608
 11
2238.779605
 21
2718.012608
  0
LINE
  5
A6
100
AcDbEntity
  8
M2
  6
CONTINUOUS
370
13
100
AcDbLine
 10
2504.339923
 20
2718.012608
 11
2238.779605
 21
2718.012608
  0
LINE
  5
A7
100
AcDbEntity
  8
M2
  6
DIVIDE
370
13
100
AcDbLine
 10
1578.862165
 20
1146.477148
 11
1578.862165
 21
1242.47715
  0
LINE
  5
A8
100
AcDbEntity
  8
M2
  6
CONTINUOUS
370
13
100
AcDbLine
 10
1869.792172
 20
3048.629378
 11
1902.720172
 21
3015.701377
  0
LINE
  5
A9
100
AcDbEntity
  8
M2
  6
CONTINUOUS
370
13
100
AcDbLine
 10
1869.792172
 20
3021.476477
 11
1902.720172
 21
2988.548476
  0
LINE
  5
AA
100
AcDbEntity
  8
M2
  6
CONTINUOUS
370
13
100
AcDbLine
 10
1752.076156
 20
2753.012608
 11
1752.076156
 21
2718.012608
  0
LINE
  5
AB
100
AcDbEntity
  8
M2
  6
CONTINUOUS
370
13
100
AcDbLine
 10
1869.792172
 20
2967.170676
 11
1902.720172
 21
2934.242675
  0
LINE
  5
AC
100
AcDbEntity
  8
M2
  6
CONTINUOUS
370
13
100
AcDbLine
 10
1869.792172
 20
2940.017775
 11
1902.720172
 21
2907.089774
  0
LINE
  5
AD
100
AcDbEntity
  8
M2
  6
CONTINUOUS
370
13
100
AcDbLine
 10
1869.792172
 20
3075.782291
 11
1902.720172
 21
3042.85429
  0
LINE
  5
AE
100
AcDbEntity
  8
M2
  6
CONTINUOUS
370
13
100
AcDbLine
 10
2020.135912
 20
2718.012608
 11
1752.076156
 21
2718.012608
  0
LINE
  5
AF
100
AcDbEntity
  8
M2
  6
CONTINUOUS
370
13
100
AcDbLine
 10
3555.022547
 20
2121.894444
 11
3830.022553
 21
2121.894444
  0
CIRCLE
  5
B0
100
AcDbEntity
  8
M2
  6
CONTINUOUS
370
13
100
AcDbCircle
 10
1679.69573
 20
1760.094436
 40
9.6
  0
CIRCLE
  5
B1
100
AcDbEntity
  8
M2
  6
CONTINUOUS
370
13
100
AcDbCircle
 10
1775.695732
 20
1760.094436
 40
9.6
  0
CIRCLE
  5
B2
100
AcDbEntity
  8
M2
  6
CONTINUOUS
370
13
100
AcDbCircle
 10
1823.695733
 20
1760.094436
 40
9.6
  0
CIRCLE
  5
B3
100
AcDbEntity
  8
M2
  6
CONTINUOUS
370
13
100
AcDbCircle
 10
1727.695731
 20
1760.094436
 40
9.6
  0
CIRCLE
  5
B4
100
AcDbEntity
  8
M2
  6
CONTINUOUS
370
13
100
AcDbCircle
 10
3024.985222
 20
1760.122799
 40
9.6
  0
CIRCLE
  5
B5
100
AcDbEntity
  8
M2
  6
CONTINUOUS
370
13
100
AcDbCircle
 10
2976.608721
 20
1760.122799
 40
9.6
  0
ARC
  5
B6
100
AcDbEntity
  8
M2
  6
CONTINUOUS
370
13
100
AcDbCircle
 10
1895.856172
 20
2808.549685
 40
9.6
100
AcDbArc
 50
180.0
 51
270.0
  0
ARC
  5
B7
100
AcDbEntity
  8
M2
  6
CONTINUOUS
370
13
100
AcDbCircle
 10
1876.656172
 20
2808.549685
 40
9.6
100
AcDbArc
 50
270.0
 51
360.0
  0
ARC
  5
B8
100
AcDbEntity
  8
M2
  6
CONTINUOUS
370
13
100
AcDbCircle
 10
1838.765846
 20
2789.349684
 40
9.6
100
AcDbArc
 50
90.0
 51
180.0
  0
ARC
  5
B9
100
AcDbEntity
  8
M2
  6
CONTINUOUS
370
13
100
AcDbCircle
 10
1963.311011
 20
2789.349684
 40
9.6
100
AcDbArc
 50
0.0
 51
90.0
  0
ARC
  5
BA
100
AcDbEntity
  8
M2
  6
CONTINUOUS
370
13
100
AcDbCircle
 10
1780.911007
 20
2789.349684
 40
9.6
100
AcDbArc
 50
90.0
 51
180.0
  0
ARC
  5
BB
100
AcDbEntity
  8
M2
  6
CONTINUOUS
370
13
100
AcDbCircle
 10
1992.111012
 20
2789.349684
 40
9.6
100
AcDbArc
 50
0.0
 51
90.0
  0
ARC
  5
BC
100
AcDbEntity
  8
M2
  6
CONTINUOUS
370
13
100
AcDbCircle
 10
1809.711008
 20
2789.349684
 40
9.6
100
AcDbArc
 50
90.0
 51
180.0
  0
ARC
  5
BD
100
AcDbEntity
  8
M2
  6
CONTINUOUS
370
13
100
AcDbCircle
 10
1867.056172
 20
2789.349684
 40
9.6
100
AcDbArc
 50
90.0
 51
180.0
  0
TEXT
  5
BE
100
AcDbEntity
  8
M2
100
AcDbText
 10
2478.9998
 20
2973.716982
 40
50.0
  1
給湯流量センサ
 50
90.000003
 41
0.645833
  7
STANDARD
100
AcDbText
  0
TEXT
  5
BF
100
AcDbEntity
  8
M2
100
AcDbText
 10
1907.379031
 20
3172.940314
 40
50.0
  1
電動混合弁
 50
90.000003
 41
0.645833
  7
STANDARD
100
AcDbText
  0
TEXT
  5
C0
100
AcDbEntity
  8
M2
100
AcDbText
 10
3795.294732
 20
2559.471558
 40
46.799988
  1
リモコン
 50
1.001791E-005
 41
0.713333
  7
STANDARD
100
AcDbText
  0
LINE
  5
C1
100
AcDbEntity
  8
M2
  6
CONTINUOUS
370
13
100
AcDbLine
 10
3505.022546
 20
2071.894443
 11
3505.022546
 21
2221.841272
  0
LINE
  5
C2
100
AcDbEntity
  8
M2
  6
CONTINUOUS
370
13
100
AcDbLine
 10
3430.022544
 20
2173.84127
 11
3430.022544
 21
1946.89444
  0
LINE
  5
C3
100
AcDbEntity
  8
M2
  6
CONTINUOUS
370
13
100
AcDbLine
 10
3430.022544
 20
1946.89444
 11
3505.022546
 21
1946.89444
  0
LINE
  5
C4
100
AcDbEntity
  8
M2
  6
CONTINUOUS
370
13
100
AcDbLine
 10
3505.022546
 20
1946.89444
 11
3505.022546
 21
1996.894442
  0
LINE
  5
C5
100
AcDbEntity
  8
M2
  6
DIVIDE
370
13
100
AcDbLine
 10
3467.522545
 20
2096.894444
 11
3605.022548
 21
2096.894444
  0
LINE
  5
C6
100
AcDbEntity
  8
M2
  6
DIVIDE
370
13
100
AcDbLine
 10
3467.522545
 20
2096.894444
 11
3467.522545
 21
1971.894441
  0
LINE
  5
C7
100
AcDbEntity
  8
M2
  6
DIVIDE
370
13
100
AcDbLine
 10
3467.522545
 20
1971.894441
 11
3605.022548
 21
1971.894441
  0
LINE
  5
59
102
{ACAD_REACTORS
330
58
102
}
330
1F
100
AcDbEntity
  8
M2
  6
DIVIDE
370
13
100
AcDbLine
 10
3605.022548
 20
1971.894441
 11
3605.022548
 21
2096.894444
  0
LINE
  5
C8
100
AcDbEntity
  8
M2
  6
CONTINUOUS
370
13
100
AcDbLine
 10
3573.772547
 20
2068.769443
 11
3573.772547
 21
2000.019442
  0
LINE
  5
C9
100
AcDbEntity
  8
M2
  6
CONTINUOUS
370
13
100
AcDbLine
 10
3555.022547
 20
2121.894444
 11
3555.022547
 21
2068.769443
  0
LINE
  5
CA
100
AcDbEntity
  8
M2
  6
CONTINUOUS
370
13
100
AcDbLine
 10
3742.522551
 20
2334.394449
 11
3830.022553
 21
2334.394449
  0
LINE
  5
CB
100
AcDbEntity
  8
M2
  6
CONTINUOUS
370
13
100
AcDbLine
 10
3692.52255
 20
2284.394448
 11
3692.52255
 21
2351.894449
  0
LINE
  5
CC
100
AcDbEntity
  8
M2
  6
CONTINUOUS
370
13
100
AcDbLine
 10
3617.522548
 20
2303.894448
 11
3617.522548
 21
2159.394445
  0
LINE
  5
CD
100
AcDbEntity
  8
M2
  6
CONTINUOUS
370
13
100
AcDbLine
 10
3617.522548
 20
2159.394445
 11
3692.52255
 21
2159.394445
  0
LINE
  5
CE
100
AcDbEntity
  8
M2
  6
CONTINUOUS
370
13
100
AcDbLine
 10
3692.52255
 20
2159.394445
 11
3692.52255
 21
2209.394446
  0
LINE
  5
CF
100
AcDbEntity
  8
M2
  6
DIVIDE
370
13
100
AcDbLine
 10
3655.022549
 20
2309.394449
 11
3792.522552
 21
2309.394449
  0
LINE
  5
D0
100
AcDbEntity
  8
M2
  6
DIVIDE
370
13
100
AcDbLine
 10
3655.022549
 20
2309.394449
 11
3655.022549
 21
2184.394446
  0
LINE
  5
D1
100
AcDbEntity
  8
M2
  6
DIVIDE
370
13
100
AcDbLine
 10
3655.022549
 20
2184.394446
 11
3792.522552
 21
2184.394446
  0
LINE
  5
5E
102
{ACAD_REACTORS
330
5D
102
}
330
1F
100
AcDbEntity
  8
M2
  6
DIVIDE
370
13
100
AcDbLine
 10
3792.522552
 20
2184.394446
 11
3792.522552
 21
2309.394449
  0
LINE
  5
D2
100
AcDbEntity
  8
M2
  6
CONTINUOUS
370
13
100
AcDbLine
 10
3761.272551
 20
2281.269448
 11
3761.272551
 21
2212.519446
  0
LINE
  5
D3
100
AcDbEntity
  8
M2
  6
CONTINUOUS
370
13
100
AcDbLine
 10
3742.522551
 20
2334.394449
 11
3742.522551
 21
2281.269448
  0
LINE
  5
D4
100
AcDbEntity
  8
M2
  6
CONTINUOUS
370
13
100
AcDbLine
 10
3214.956177
 20
2351.894449
 11
3692.52255
 21
2351.894449
  0
LINE
  5
D5
100
AcDbEntity
  8
M2
  6
CONTINUOUS
370
13
100
AcDbLine
 10
3617.522548
 20
2303.894448
 11
3214.956177
 21
2303.894448
  0
LINE
  5
D6
100
AcDbEntity
  8
M2
  6
CONTINUOUS
370
13
100
AcDbLine
 10
3214.956177
 20
2221.841272
 11
3505.022546
 21
2221.841272
  0
LINE
  5
D7
100
AcDbEntity
  8
M2
  6
CONTINUOUS
370
13
100
AcDbLine
 10
3430.022544
 20
2173.84127
 11
3214.956177
 21
2173.84127
  0
LINE
  5
D8
100
AcDbEntity
  8
M2
  6
CONTINUOUS
370
13
100
AcDbLine
 10
3742.522551
 20
2212.519446
 11
3742.522551
 21
1007.292744
  0
LINE
  5
D9
100
AcDbEntity
  8
M2
  6
CONTINUOUS
370
13
100
AcDbLine
 10
3555.022547
 20
2000.019442
 11
3555.022547
 21
1055.31452
  0
LINE
  5
DA
100
AcDbEntity
  8
M2
  6
CONTINUOUS
370
13
100
AcDbLine
 10
3830.022553
 20
2334.394449
 11
3830.022553
 21
959.292743
  0
LINE
  5
DB
100
AcDbEntity
  8
M2
  6
CONTINUOUS
370
13
100
AcDbLine
 10
1641.262166
 20
959.201981
 11
1612.462166
 21
959.201981
  0
LINE
  5
DC
100
AcDbEntity
  8
M2
  6
CONTINUOUS
370
13
100
AcDbLine
 10
3830.022553
 20
959.292743
 11
1660.461742
 21
959.292743
  0
LINE
  5
DD
100
AcDbEntity
  8
M2
  6
CONTINUOUS
370
13
100
AcDbLine
 10
2993.772534
 20
2946.894463
 11
2965.022534
 21
2946.894463
  0
LINE
  5
DE
100
AcDbEntity
  8
M2
  6
CONTINUOUS
370
13
100
AcDbLine
 10
2965.022534
 20
2914.0932
 11
2965.022534
 21
2946.894463
  0
LINE
  5
DF
100
AcDbEntity
  8
M2
  6
CONTINUOUS
370
13
100
AcDbLine
 10
2993.772534
 20
2745.244458
 11
2993.772534
 21
2946.894463
  0
LINE
  5
E0
100
AcDbEntity
  8
M2
  6
DIVIDE
370
13
100
AcDbLine
 10
2951.582533
 20
2914.094462
 11
2951.582533
 21
2846.894461
  0
LINE
  5
E1
100
AcDbEntity
  8
M2
  6
DIVIDE
370
13
100
AcDbLine
 10
2978.462534
 20
2846.894461
 11
2978.462534
 21
2914.094462
  0
CIRCLE
  5
E2
100
AcDbEntity
  8
M2
  6
CONTINUOUS
370
13
100
AcDbCircle
 10
3555.022547
 20
2009.394442
 40
9.375
  0
CIRCLE
  5
E3
100
AcDbEntity
  8
M2
  6
CONTINUOUS
370
13
100
AcDbCircle
 10
3555.022547
 20
2059.394443
 40
9.375
  0
CIRCLE
  5
E4
100
AcDbEntity
  8
M2
  6
CONTINUOUS
370
13
100
AcDbCircle
 10
3742.522551
 20
2221.894447
 40
9.375
  0
CIRCLE
  5
E5
100
AcDbEntity
  8
M2
  6
CONTINUOUS
370
13
100
AcDbCircle
 10
3742.522551
 20
2271.894448
 40
9.375
  0
CIRCLE
  5
E6
100
AcDbEntity
  8
M2
  6
CONTINUOUS
370
13
100
AcDbCircle
 10
3830.022553
 20
2121.894444
 40
6.25
  0
CIRCLE
  5
E7
100
AcDbEntity
  8
M2
  6
CONTINUOUS
370
13
100
AcDbCircle
 10
3830.022553
 20
2121.894444
 40
4.6875
  0
CIRCLE
  5
E8
100
AcDbEntity
  8
M2
  6
CONTINUOUS
370
13
100
AcDbCircle
 10
3830.022553
 20
2121.894444
 40
3.125
  0
CIRCLE
  5
E9
100
AcDbEntity
  8
M2
  6
CONTINUOUS
370
13
100
AcDbCircle
 10
3830.022553
 20
2121.894444
 40
1.5625
  0
CIRCLE
  5
EA
100
AcDbEntity
  8
M2
  6
CONTINUOUS
370
13
100
AcDbCircle
 10
1602.862166
 20
959.201981
 40
9.6
  0
CIRCLE
  5
EB
100
AcDbEntity
  8
M2
  6
CONTINUOUS
370
13
100
AcDbCircle
 10
1650.862167
 20
959.201981
 40
9.6
  0
CIRCLE
  5
EC
100
AcDbEntity
  8
M2
  6
CONTINUOUS
370
13
100
AcDbCircle
 10
2965.022534
 20
2735.644458
 40
9.6
  0
ARC
  5
ED
100
AcDbEntity
  8
M2
  6
CONTINUOUS
370
13
100
AcDbCircle
 10
3505.022546
 20
2063.144443
 40
8.75
100
AcDbArc
 50
250.700148
 51
450.0
  0
ARC
  5
EE
100
AcDbEntity
  8
M2
  6
CONTINUOUS
370
13
100
AcDbCircle
 10
3505.022546
 20
2048.769443
 40
8.75
100
AcDbArc
 50
250.700148
 51
469.299852
  0
ARC
  5
EF
100
AcDbEntity
  8
M2
  6
CONTINUOUS
370
13
100
AcDbCircle
 10
3505.022546
 20
2020.019442
 40
8.75
100
AcDbArc
 50
250.700148
 51
469.299852
  0
ARC
  5
F0
100
AcDbEntity
  8
M2
  6
CONTINUOUS
370
13
100
AcDbCircle
 10
3505.022546
 20
2034.394442
 40
8.75
100
AcDbArc
 50
250.700148
 51
469.299852
  0
ARC
  5
F1
100
AcDbEntity
  8
M2
  6
CONTINUOUS
370
13
100
AcDbCircle
 10
3505.022546
 20
2005.644442
 40
8.75
100
AcDbArc
 50
270.0
 51
469.299852
  0
ARC
  5
F2
100
AcDbEntity
  8
M2
  6
CONTINUOUS
370
13
100
AcDbCircle
 10
3502.505546
 20
2055.956943
 40
1.134525
100
AcDbArc
 50
109.299852
 51
250.700148
  0
ARC
  5
F3
100
AcDbEntity
  8
M2
  6
CONTINUOUS
370
13
100
AcDbCircle
 10
3502.505546
 20
2041.581943
 40
1.134525
100
AcDbArc
 50
109.299852
 51
250.700148
  0
ARC
  5
F4
100
AcDbEntity
  8
M2
  6
CONTINUOUS
370
13
100
AcDbCircle
 10
3502.505546
 20
2027.206942
 40
1.134525
100
AcDbArc
 50
109.299852
 51
250.700148
  0
ARC
  5
F5
100
AcDbEntity
  8
M2
  6
CONTINUOUS
370
13
100
AcDbCircle
 10
3502.505546
 20
2012.831942
 40
1.134525
100
AcDbArc
 50
109.299852
 51
250.700148
  0
ARC
  5
F6
100
AcDbEntity
  8
M2
  6
CONTINUOUS
370
13
100
AcDbCircle
 10
3692.52255
 20
2275.644448
 40
8.75
100
AcDbArc
 50
250.700148
 51
450.0
  0
ARC
  5
F7
100
AcDbEntity
  8
M2
  6
CONTINUOUS
370
13
100
AcDbCircle
 10
3692.52255
 20
2261.269447
 40
8.75
100
AcDbArc
 50
250.700148
 51
469.299852
  0
ARC
  5
F8
100
AcDbEntity
  8
M2
  6
CONTINUOUS
370
13
100
AcDbCircle
 10
3692.52255
 20
2232.519447
 40
8.75
100
AcDbArc
 50
250.700148
 51
469.299852
  0
ARC
  5
F9
100
AcDbEntity
  8
M2
  6
CONTINUOUS
370
13
100
AcDbCircle
 10
3692.52255
 20
2246.894447
 40
8.75
100
AcDbArc
 50
250.700148
 51
469.299852
  0
ARC
  5
FA
100
AcDbEntity
  8
M2
  6
CONTINUOUS
370
13
100
AcDbCircle
 10
3692.52255
 20
2218.144446
 40
8.75
100
AcDbArc
 50
270.0
 51
469.299852
  0
ARC
  5
FB
100
AcDbEntity
  8
M2
  6
CONTINUOUS
370
13
100
AcDbCircle
 10
3690.00555
 20
2268.456948
 40
1.134525
100
AcDbArc
 50
109.299852
 51
250.700148
  0
ARC
  5
FC
100
AcDbEntity
  8
M2
  6
CONTINUOUS
370
13
100
AcDbCircle
 10
3690.00555
 20
2254.081947
 40
1.134525
100
AcDbArc
 50
109.299852
 51
250.700148
  0
ARC
  5
FD
100
AcDbEntity
  8
M2
  6
CONTINUOUS
370
13
100
AcDbCircle
 10
3690.00555
 20
2239.706947
 40
1.134525
100
AcDbArc
 50
109.299852
 51
250.700148
  0
ARC
  5
FE
100
AcDbEntity
  8
M2
  6
CONTINUOUS
370
13
100
AcDbCircle
 10
3690.00555
 20
2225.331947
 40
1.134525
100
AcDbArc
 50
109.299852
 51
250.700148
  0
ARC
  5
FF
100
AcDbEntity
  8
M2
  6
DIVIDE
370
13
100
AcDbCircle
 10
2965.022534
 20
2914.094462
 40
13.44
100
AcDbArc
 50
0.0
 51
180.0
  0
TEXT
  5
100
100
AcDbEntity
  8
M2
100
AcDbText
 10
2993.772603
 20
2972.34598
 40
50.0
  1
タンク下部温度センサ
 50
90.000003
 41
0.645833
  7
STANDARD
100
AcDbText
  0
LINE
  5
101
100
AcDbEntity
  8
M2
  6
CONTINUOUS
370
13
100
AcDbLine
 10
2965.022534
 20
2745.244458
 11
2965.022534
 21
2846.894461
  0
LINE
  5
102
100
AcDbEntity
  8
M2
  6
CONTINUOUS
370
13
100
AcDbLine
 10
2965.022534
 20
2846.894461
 11
2955.323233
 21
2852.494361
  0
LINE
  5
103
100
AcDbEntity
  8
M2
  6
CONTINUOUS
370
13
100
AcDbLine
 10
2974.721834
 20
2863.694148
 11
2955.323233
 21
2852.494361
  0
LINE
  5
104
100
AcDbEntity
  8
M2
  6
CONTINUOUS
370
13
100
AcDbLine
 10
2974.721834
 20
2863.694148
 11
2955.323233
 21
2874.893936
  0
LINE
  5
105
100
AcDbEntity
  8
M2
  6
CONTINUOUS
370
13
100
AcDbLine
 10
2974.721834
 20
2886.093724
 11
2955.323233
 21
2874.893936
  0
LINE
  5
106
100
AcDbEntity
  8
M2
  6
CONTINUOUS
370
13
100
AcDbLine
 10
2974.721834
 20
2886.093724
 11
2955.323233
 21
2897.293512
  0
LINE
  5
107
100
AcDbEntity
  8
M2
  6
CONTINUOUS
370
13
100
AcDbLine
 10
2974.721834
 20
2908.493299
 11
2955.323233
 21
2897.293512
  0
LINE
  5
108
100
AcDbEntity
  8
M2
  6
CONTINUOUS
370
13
100
AcDbLine
 10
2965.022534
 20
2914.0932
 11
2974.721834
 21
2908.493299
  0
LINE
  5
109
100
AcDbEntity
  8
M2
  6
CONTINUOUS
370
13
100
AcDbLine
 10
3026.272535
 20
2745.244458
 11
3026.272535
 21
2846.894461
  0
LINE
  5
10A
100
AcDbEntity
  8
M2
  6
CONTINUOUS
370
13
100
AcDbLine
 10
3055.022536
 20
2745.244458
 11
3055.022536
 21
2946.894463
  0
LINE
  5
10B
100
AcDbEntity
  8
M2
  6
CONTINUOUS
370
13
100
AcDbLine
 10
3087.522536
 20
2745.244458
 11
3087.522536
 21
2846.894461
  0
LINE
  5
10C
100
AcDbEntity
  8
M2
  6
CONTINUOUS
370
13
100
AcDbLine
 10
3116.272537
 20
2745.244458
 11
3116.272537
 21
2946.894463
  0
LINE
  5
10D
100
AcDbEntity
  8
M2
  6
CONTINUOUS
370
13
100
AcDbLine
 10
3148.772538
 20
2745.244458
 11
3148.772538
 21
2846.894461
  0
LINE
  5
10E
100
AcDbEntity
  8
M2
  6
CONTINUOUS
370
13
100
AcDbLine
 10
3177.522538
 20
2745.244458
 11
3177.522538
 21
2946.894463
  0
LINE
  5
10F
100
AcDbEntity
  8
M2
  6
CONTINUOUS
370
13
100
AcDbLine
 10
3055.022536
 20
2946.894463
 11
3026.272535
 21
2946.894463
  0
LINE
  5
110
100
AcDbEntity
  8
M2
  6
CONTINUOUS
370
13
100
AcDbLine
 10
3026.272535
 20
2914.0932
 11
3026.272535
 21
2946.894463
  0
LINE
  5
111
100
AcDbEntity
  8
M2
  6
DIVIDE
370
13
100
AcDbLine
 10
3012.832535
 20
2914.094462
 11
3012.832535
 21
2846.894461
  0
LINE
  5
112
100
AcDbEntity
  8
M2
  6
DIVIDE
370
13
100
AcDbLine
 10
3039.712535
 20
2846.894461
 11
3039.712535
 21
2914.094462
  0
LINE
  5
113
100
AcDbEntity
  8
M2
  6
CONTINUOUS
370
13
100
AcDbLine
 10
3026.272535
 20
2846.894461
 11
3016.573235
 21
2852.494361
  0
LINE
  5
114
100
AcDbEntity
  8
M2
  6
CONTINUOUS
370
13
100
AcDbLine
 10
3035.971835
 20
2863.694148
 11
3016.573235
 21
2852.494361
  0
LINE
  5
115
100
AcDbEntity
  8
M2
  6
CONTINUOUS
370
13
100
AcDbLine
 10
3035.971835
 20
2863.694148
 11
3016.573235
 21
2874.893936
  0
LINE
  5
116
100
AcDbEntity
  8
M2
  6
CONTINUOUS
370
13
100
AcDbLine
 10
3035.971835
 20
2886.093724
 11
3016.573235
 21
2874.893936
  0
LINE
  5
117
100
AcDbEntity
  8
M2
  6
CONTINUOUS
370
13
100
AcDbLine
 10
3035.971835
 20
2886.093724
 11
3016.573235
 21
2897.293512
  0
LINE
  5
118
100
AcDbEntity
  8
M2
  6
CONTINUOUS
370
13
100
AcDbLine
 10
3035.971835
 20
2908.493299
 11
3016.573235
 21
2897.293512
  0
LINE
  5
119
100
AcDbEntity
  8
M2
  6
CONTINUOUS
370
13
100
AcDbLine
 10
3026.272535
 20
2914.0932
 11
3035.971835
 21
2908.493299
  0
LINE
  5
11A
100
AcDbEntity
  8
M2
  6
CONTINUOUS
370
13
100
AcDbLine
 10
3116.272537
 20
2946.894463
 11
3087.522536
 21
2946.894463
  0
LINE
  5
11B
100
AcDbEntity
  8
M2
  6
CONTINUOUS
370
13
100
AcDbLine
 10
3087.522536
 20
2914.0932
 11
3087.522536
 21
2946.894463
  0
LINE
  5
11C
100
AcDbEntity
  8
M2
  6
DIVIDE
370
13
100
AcDbLine
 10
3074.082536
 20
2914.094462
 11
3074.082536
 21
2846.894461
  0
LINE
  5
11D
100
AcDbEntity
  8
M2
  6
DIVIDE
370
13
100
AcDbLine
 10
3100.962537
 20
2846.894461
 11
3100.962537
 21
2914.094462
  0
LINE
  5
11E
100
AcDbEntity
  8
M2
  6
CONTINUOUS
370
13
100
AcDbLine
 10
3087.522536
 20
2846.894461
 11
3077.823236
 21
2852.494361
  0
LINE
  5
11F
100
AcDbEntity
  8
M2
  6
CONTINUOUS
370
13
100
AcDbLine
 10
3097.221837
 20
2863.694148
 11
3077.823236
 21
2852.494361
  0
LINE
  5
120
100
AcDbEntity
  8
M2
  6
CONTINUOUS
370
13
100
AcDbLine
 10
3097.221837
 20
2863.694148
 11
3077.823236
 21
2874.893936
  0
LINE
  5
121
100
AcDbEntity
  8
M2
  6
CONTINUOUS
370
13
100
AcDbLine
 10
3097.221837
 20
2886.093724
 11
3077.823236
 21
2874.893936
  0
LINE
  5
122
100
AcDbEntity
  8
M2
  6
CONTINUOUS
370
13
100
AcDbLine
 10
3097.221837
 20
2886.093724
 11
3077.823236
 21
2897.293512
  0
LINE
  5
123
100
AcDbEntity
  8
M2
  6
CONTINUOUS
370
13
100
AcDbLine
 10
3097.221837
 20
2908.493299
 11
3077.823236
 21
2897.293512
  0
LINE
  5
124
100
AcDbEntity
  8
M2
  6
CONTINUOUS
370
13
100
AcDbLine
 10
3087.522536
 20
2914.0932
 11
3097.221837
 21
2908.493299
  0
LINE
  5
125
100
AcDbEntity
  8
M2
  6
CONTINUOUS
370
13
100
AcDbLine
 10
3177.522538
 20
2946.894463
 11
3148.772538
 21
2946.894463
  0
LINE
  5
126
100
AcDbEntity
  8
M2
  6
CONTINUOUS
370
13
100
AcDbLine
 10
3148.772538
 20
2914.0932
 11
3148.772538
 21
2946.894463
  0
LINE
  5
127
100
AcDbEntity
  8
M2
  6
DIVIDE
370
13
100
AcDbLine
 10
3135.332537
 20
2914.094462
 11
3135.332537
 21
2846.894461
  0
LINE
  5
128
100
AcDbEntity
  8
M2
  6
DIVIDE
370
13
100
AcDbLine
 10
3162.212538
 20
2846.894461
 11
3162.212538
 21
2914.094462
  0
LINE
  5
129
100
AcDbEntity
  8
M2
  6
CONTINUOUS
370
13
100
AcDbLine
 10
3148.772538
 20
2846.894461
 11
3139.073237
 21
2852.494361
  0
LINE
  5
12A
100
AcDbEntity
  8
M2
  6
CONTINUOUS
370
13
100
AcDbLine
 10
3158.471838
 20
2863.694148
 11
3139.073237
 21
2852.494361
  0
LINE
  5
12B
100
AcDbEntity
  8
M2
  6
CONTINUOUS
370
13
100
AcDbLine
 10
3158.471838
 20
2863.694148
 11
3139.073237
 21
2874.893936
  0
LINE
  5
12C
100
AcDbEntity
  8
M2
  6
CONTINUOUS
370
13
100
AcDbLine
 10
3158.471838
 20
2886.093724
 11
3139.073237
 21
2874.893936
  0
LINE
  5
12D
100
AcDbEntity
  8
M2
  6
CONTINUOUS
370
13
100
AcDbLine
 10
3158.471838
 20
2886.093724
 11
3139.073237
 21
2897.293512
  0
LINE
  5
12E
100
AcDbEntity
  8
M2
  6
CONTINUOUS
370
13
100
AcDbLine
 10
3158.471838
 20
2908.493299
 11
3139.073237
 21
2897.293512
  0
LINE
  5
12F
100
AcDbEntity
  8
M2
  6
CONTINUOUS
370
13
100
AcDbLine
 10
3148.772538
 20
2914.0932
 11
3158.471838
 21
2908.493299
  0
LINE
  5
130
100
AcDbEntity
  8
M2
  6
CONTINUOUS
370
13
100
AcDbLine
 10
2907.522532
 20
2946.894463
 11
2878.772532
 21
2946.894463
  0
LINE
  5
131
100
AcDbEntity
  8
M2
  6
CONTINUOUS
370
13
100
AcDbLine
 10
2878.772532
 20
2914.0932
 11
2878.772532
 21
2946.894463
  0
LINE
  5
132
100
AcDbEntity
  8
M2
  6
DIVIDE
370
13
100
AcDbLine
 10
2865.332531
 20
2914.094462
 11
2865.332531
 21
2846.894461
  0
LINE
  5
133
100
AcDbEntity
  8
M2
  6
DIVIDE
370
13
100
AcDbLine
 10
2892.212532
 20
2846.894461
 11
2892.212532
 21
2914.094462
  0
LINE
  5
134
100
AcDbEntity
  8
M2
  6
CONTINUOUS
370
13
100
AcDbLine
 10
2878.772532
 20
2846.894461
 11
2869.073231
 21
2852.494361
  0
CIRCLE
  5
135
100
AcDbEntity
  8
M2
  6
CONTINUOUS
370
13
100
AcDbCircle
 10
2993.772534
 20
2735.644458
 40
9.6
  0
CIRCLE
  5
136
100
AcDbEntity
  8
M2
  6
CONTINUOUS
370
13
100
AcDbCircle
 10
3026.272535
 20
2735.644458
 40
9.6
  0
CIRCLE
  5
137
100
AcDbEntity
  8
M2
  6
CONTINUOUS
370
13
100
AcDbCircle
 10
3055.022536
 20
2735.644458
 40
9.6
  0
CIRCLE
  5
138
100
AcDbEntity
  8
M2
  6
CONTINUOUS
370
13
100
AcDbCircle
 10
3116.272537
 20
2735.644458
 40
9.6
  0
CIRCLE
  5
139
100
AcDbEntity
  8
M2
  6
CONTINUOUS
370
13
100
AcDbCircle
 10
3087.522536
 20
2735.644458
 40
9.6
  0
CIRCLE
  5
13A
100
AcDbEntity
  8
M2
  6
CONTINUOUS
370
13
100
AcDbCircle
 10
3177.522538
 20
2735.644458
 40
9.6
  0
CIRCLE
  5
13B
100
AcDbEntity
  8
M2
  6
CONTINUOUS
370
13
100
AcDbCircle
 10
3148.772538
 20
2735.644458
 40
9.6
  0
ARC
  5
13C
100
AcDbEntity
  8
M2
  6
DIVIDE
370
13
100
AcDbCircle
 10
2965.022534
 20
2846.894461
 40
13.44
100
AcDbArc
 50
180.0
 51
360.0
  0
ARC
  5
13D
100
AcDbEntity
  8
M2
  6
DIVIDE
370
13
100
AcDbCircle
 10
3026.272535
 20
2914.094462
 40
13.44
100
AcDbArc
 50
0.0
 51
180.0
  0
ARC
  5
13E
100
AcDbEntity
  8
M2
  6
DIVIDE
370
13
100
AcDbCircle
 10
3026.272535
 20
2846.894461
 40
13.44
100
AcDbArc
 50
180.0
 51
360.0
  0
ARC
  5
13F
100
AcDbEntity
  8
M2
  6
DIVIDE
370
13
100
AcDbCircle
 10
3087.522536
 20
2914.094462
 40
13.44
100
AcDbArc
 50
0.0
 51
180.0
  0
ARC
  5
140
100
AcDbEntity
  8
M2
  6
DIVIDE
370
13
100
AcDbCircle
 10
3087.522536
 20
2846.894461
 40
13.44
100
AcDbArc
 50
180.0
 51
360.0
  0
ARC
  5
141
100
AcDbEntity
  8
M2
  6
DIVIDE
370
13
100
AcDbCircle
 10
3148.772538
 20
2914.094462
 40
13.44
100
AcDbArc
 50
0.0
 51
180.0
  0
ARC
  5
142
100
AcDbEntity
  8
M2
  6
DIVIDE
370
13
100
AcDbCircle
 10
3148.772538
 20
2846.894461
 40
13.44
100
AcDbArc
 50
180.0
 51
360.0
  0
TEXT
  5
143
100
AcDbEntity
  8
M2
100
AcDbText
 10
3116.272643
 20
2972.34598
 40
50.0
  1
タンク上部温度センサ
 50
90.000003
 41
0.645833
  7
STANDARD
100
AcDbText
  0
TEXT
  5
144
100
AcDbEntity
  8
M2
100
AcDbText
 10
3055.022528
 20
2972.34598
 40
50.0
  1
タンク中間部温度センサ
 50
90.000003
 41
0.645833
  7
STANDARD
100
AcDbText
  0
TEXT
  5
145
100
AcDbEntity
  8
M2
100
AcDbText
 10
3177.522569
 20
2972.34598
 40
50.0
  1
給湯温度センサ
 50
90.000003
 41
0.645833
  7
STANDARD
100
AcDbText
  0
LINE
  5
146
100
AcDbEntity
  8
M2
  6
CONTINUOUS
370
13
100
AcDbLine
 10
2888.471832
 20
2863.694148
 11
2869.073231
 21
2852.494361
  0
LINE
  5
147
100
AcDbEntity
  8
M2
  6
CONTINUOUS
370
13
100
AcDbLine
 10
2888.471832
 20
2863.694148
 11
2869.073231
 21
2874.893936
  0
LINE
  5
148
100
AcDbEntity
  8
M2
  6
CONTINUOUS
370
13
100
AcDbLine
 10
2888.471832
 20
2886.093724
 11
2869.073231
 21
2874.893936
  0
LINE
  5
149
100
AcDbEntity
  8
M2
  6
CONTINUOUS
370
13
100
AcDbLine
 10
2888.471832
 20
2886.093724
 11
2869.073231
 21
2897.293512
  0
LINE
  5
14A
100
AcDbEntity
  8
M2
  6
CONTINUOUS
370
13
100
AcDbLine
 10
2888.471832
 20
2908.493299
 11
2869.073231
 21
2897.293512
  0
LINE
  5
14B
100
AcDbEntity
  8
M2
  6
CONTINUOUS
370
13
100
AcDbLine
 10
2878.772532
 20
2914.0932
 11
2888.471832
 21
2908.493299
  0
LINE
  5
14C
100
AcDbEntity
  8
M2
  6
CONTINUOUS
370
13
100
AcDbLine
 10
2878.772532
 20
2745.244458
 11
2878.772532
 21
2846.894461
  0
LINE
  5
14D
100
AcDbEntity
  8
M2
  6
CONTINUOUS
370
13
100
AcDbLine
 10
2907.522532
 20
2745.244458
 11
2907.522532
 21
2946.894463
  0
LINE
  5
14E
100
AcDbEntity
  8
M2
  6
CONTINUOUS
370
13
100
AcDbLine
 10
2923.772533
 20
2753.144458
 11
2923.772533
 21
2718.144458
  0
LINE
  5
14F
100
AcDbEntity
  8
M2
  6
CONTINUOUS
370
13
100
AcDbLine
 10
2923.772533
 20
2718.144458
 11
2740.022529
 21
2718.144458
  0
LINE
  5
150
100
AcDbEntity
  8
M2
  6
CONTINUOUS
370
13
100
AcDbLine
 10
2740.022529
 20
2753.144458
 11
2740.022529
 21
2718.144458
  0
LINE
  5
151
100
AcDbEntity
  8
M2
  6
CONTINUOUS
370
13
100
AcDbLine
 10
2923.772533
 20
2753.144458
 11
2740.022529
 21
2753.144458
  0
CIRCLE
  5
152
100
AcDbEntity
  8
M2
  6
CONTINUOUS
370
13
100
AcDbCircle
 10
2756.272529
 20
2735.644458
 40
9.6
  0
CIRCLE
  5
153
100
AcDbEntity
  8
M2
  6
CONTINUOUS
370
13
100
AcDbCircle
 10
2785.02253
 20
2735.644458
 40
9.6
  0
CIRCLE
  5
154
100
AcDbEntity
  8
M2
  6
CONTINUOUS
370
13
100
AcDbCircle
 10
2846.272531
 20
2735.644458
 40
9.6
  0
CIRCLE
  5
155
100
AcDbEntity
  8
M2
  6
CONTINUOUS
370
13
100
AcDbCircle
 10
2817.52253
 20
2735.644458
 40
9.6
  0
CIRCLE
  5
156
100
AcDbEntity
  8
M2
  6
CONTINUOUS
370
13
100
AcDbCircle
 10
2907.522532
 20
2735.644458
 40
9.6
  0
CIRCLE
  5
157
100
AcDbEntity
  8
M2
  6
CONTINUOUS
370
13
100
AcDbCircle
 10
2878.772532
 20
2735.644458
 40
9.6
  0
ARC
  5
158
100
AcDbEntity
  8
M2
  6
DIVIDE
370
13
100
AcDbCircle
 10
2878.772532
 20
2914.094462
 40
13.44
100
AcDbArc
 50
0.0
 51
180.0
  0
ARC
  5
159
100
AcDbEntity
  8
M2
  6
DIVIDE
370
13
100
AcDbCircle
 10
2878.772532
 20
2846.894461
 40
13.44
100
AcDbArc
 50
180.0
 51
360.0
  0
TEXT
  5
15A
100
AcDbEntity
  8
M2
100
AcDbText
 10
2907.522486
 20
2972.34598
 40
50.0
  1
ＨＰ戻り温度センサ
 50
90.000003
 41
0.645833
  7
STANDARD
100
AcDbText
  0
TEXT
  5
15B
100
AcDbEntity
  8
M2
100
AcDbText
 10
1529.903904
 20
940.451966
 40
37.5
  1
黒
 41
0.833333
  7
STANDARD
100
AcDbText
  0
TEXT
  5
15C
100
AcDbEntity
  8
M2
100
AcDbText
 10
1529.903904
 20
988.451921
 40
37.5
  1
白
 41
0.833333
  7
STANDARD
100
AcDbText
  0
TEXT
  5
15D
100
AcDbEntity
  8
M2
100
AcDbText
 10
1529.903904
 20
1036.451972
 40
37.5
  1
赤
 41
0.833333
  7
STANDARD
100
AcDbText
  0
TEXT
  5
15E
100
AcDbEntity
  8
M2
100
AcDbText
 10
1697.530886
 20
1222.746436
 40
30.000002
  1
シロ
 41
0.555556
  7
STANDARD
100
AcDbText
  0
TEXT
  5
15F
100
AcDbEntity
  8
M2
100
AcDbText
 10
2986.642971
 20
1688.690212
 40
30.000002
  1
緑
 41
0.833333
  7
STANDARD
100
AcDbText
  0
TEXT
  5
160
100
AcDbEntity
  8
M2
100
AcDbText
 10
1697.530886
 20
1174.746481
 40
30.000002
  1
クロ
 41
0.555556
  7
STANDARD
100
AcDbText
  0
TEXT
  5
161
100
AcDbEntity
  8
M2
100
AcDbText
 10
1697.530886
 20
1059.568179
 40
30.000002
  1
アカ
 41
0.555556
  7
STANDARD
100
AcDbText
  0
TEXT
  5
162
100
AcDbEntity
  8
M2
100
AcDbText
 10
1697.530886
 20
1011.546385
 40
30.000002
  1
シロ
 41
0.555556
  7
STANDARD
100
AcDbText
  0
TEXT
  5
163
100
AcDbEntity
  8
M2
100
AcDbText
 10
1697.530886
 20
963.54643
 40
30.000002
  1
クロ
 41
0.555556
  7
STANDARD
100
AcDbText
  0
TEXT
  5
164
100
AcDbEntity
  8
M2
100
AcDbText
 10
2151.338298
 20
1222.741096
 40
30.000002
  1
シロ
 41
0.555556
  7
STANDARD
100
AcDbText
  0
TEXT
  5
165
100
AcDbEntity
  8
M2
100
AcDbText
 10
2151.338298
 20
1174.74114
 40
30.000002
  1
クロ
 41
0.555556
  7
STANDARD
100
AcDbText
  0
TEXT
  5
166
100
AcDbEntity
  8
M2
100
AcDbText
 10
2987.321377
 20
1798.10565
 40
50.0
  1
ＣＮ１
 41
0.4375
  7
STANDARD
100
AcDbText
  0
CIRCLE
  5
167
100
AcDbEntity
  8
M2
  6
CONTINUOUS
370
13
100
AcDbCircle
 10
3091.071378
 20
1823.105651
 40
25.000001
  0
TEXT
  5
168
100
AcDbEntity
  8
M2
100
AcDbText
 10
3078.988044
 20
1806.355651
 40
33.5
  1
白
 41
0.721393
  7
STANDARD
100
AcDbText
  0
TEXT
  5
169
100
AcDbEntity
  8
M2
100
AcDbText
 10
1701.173134
 20
1794.665175
 40
50.0
  1
ＣＮ１１
 50
1.11559E-005
 41
0.4375
  7
STANDARD
100
AcDbText
  0
CIRCLE
  5
16A
100
AcDbEntity
  8
M2
  6
CONTINUOUS
370
13
100
AcDbCircle
 10
1831.173159
 20
1819.66518
 40
25.000001
  0
TEXT
  5
16B
100
AcDbEntity
  8
M2
100
AcDbText
 10
1819.089829
 20
1802.915178
 40
33.5
  1
白
 50
1.11559E-005
 41
0.721393
  7
STANDARD
100
AcDbText
  0
TEXT
  5
16C
100
AcDbEntity
  8
M2
100
AcDbText
 10
1832.334614
 20
1690.911034
 40
30.000002
  1
シロ
 41
0.555556
  7
STANDARD
100
AcDbText
  0
TEXT
  5
16D
100
AcDbEntity
  8
M2
100
AcDbText
 10
1784.334658
 20
1690.911034
 40
30.000002
  1
シロ
 41
0.555556
  7
STANDARD
100
AcDbText
  0
TEXT
  5
16E
100
AcDbEntity
  8
M2
100
AcDbText
 10
1688.3347
 20
1690.911034
 40
30.000002
  1
アオ
 41
0.555556
  7
STANDARD
100
AcDbText
  0
TEXT
  5
16F
100
AcDbEntity
  8
M2
100
AcDbText
 10
1640.334745
 20
1690.911034
 40
30.000002
  1
アオ
 41
0.555556
  7
STANDARD
100
AcDbText
  0
TEXT
  5
170
100
AcDbEntity
  8
M2
100
AcDbText
 10
1836.276887
 20
2660.154772
 40
50.0
  1
ＣＮ２４
 41
0.4375
  7
STANDARD
100
AcDbText
  0
CIRCLE
  5
171
100
AcDbEntity
  8
M2
  6
CONTINUOUS
370
13
100
AcDbCircle
 10
1966.276917
 20
2685.154773
 40
25.000001
  0
TEXT
  5
172
100
AcDbEntity
  8
M2
100
AcDbText
 10
1954.193584
 20
2668.404773
 40
33.5
  1
白
 41
0.721393
  7
STANDARD
100
AcDbText
  0
TEXT
  5
173
100
AcDbEntity
  8
M2
100
AcDbText
 10
2320.046124
 20
2657.374621
 40
50.0
  1
ＣＮ１８
 41
0.4375
  7
STANDARD
100
AcDbText
  0
CIRCLE
  5
174
100
AcDbEntity
  8
M2
  6
CONTINUOUS
370
13
100
AcDbCircle
 10
2450.04613
 20
2682.374622
 40
25.000001
  0
TEXT
  5
175
100
AcDbEntity
  8
M2
100
AcDbText
 10
2437.962797
 20
2665.624622
 40
33.5
  1
白
 41
0.721393
  7
STANDARD
100
AcDbText
  0
TEXT
  5
176
100
AcDbEntity
  8
M2
100
AcDbText
 10
2780.092903
 20
2654.726267
 40
50.0
  1
ＣＮ１５
 41
0.4375
  7
STANDARD
100
AcDbText
  0
CIRCLE
  5
177
100
AcDbEntity
  8
M2
  6
CONTINUOUS
370
13
100
AcDbCircle
 10
2910.092909
 20
2679.726268
 40
25.000001
  0
TEXT
  5
178
100
AcDbEntity
  8
M2
100
AcDbText
 10
2898.009575
 20
2662.976268
 40
33.5
  1
白
 41
0.721393
  7
STANDARD
100
AcDbText
  0
TEXT
  5
179
100
AcDbEntity
  8
M2
100
AcDbText
 10
3019.468022
 20
2654.726267
 40
50.0
  1
ＣＮ１４
 41
0.4375
  7
STANDARD
100
AcDbText
  0
CIRCLE
  5
17A
100
AcDbEntity
  8
M2
  6
CONTINUOUS
370
13
100
AcDbCircle
 10
3149.468052
 20
2679.726268
 40
25.000001
  0
TEXT
  5
17B
100
AcDbEntity
  8
M2
100
AcDbText
 10
3137.384719
 20
2662.976268
 40
33.5
  1
白
 41
0.721393
  7
STANDARD
100
AcDbText
  0
TEXT
  5
17C
100
AcDbEntity
  8
M2
100
AcDbText
 10
2490.723357
 20
2825.177245
 40
30.000002
  1
３
 41
0.833333
  7
STANDARD
100
AcDbText
  0
TEXT
  5
17D
100
AcDbEntity
  8
M2
100
AcDbText
 10
1914.828029
 20
2937.398584
 40
30.000002
  1
９
 41
0.833333
  7
STANDARD
100
AcDbText
  0
TEXT
  5
17E
100
AcDbEntity
  8
M2
100
AcDbText
 10
3263.076909
 20
2608.164835
 40
30.000002
  1
アオ
 41
0.555556
  7
STANDARD
100
AcDbText
  0
TEXT
  5
17F
100
AcDbEntity
  8
M2
100
AcDbText
 10
3263.076909
 20
2560.164879
 40
30.000002
  1
アオ
 41
0.555556
  7
STANDARD
100
AcDbText
  0
TEXT
  5
180
100
AcDbEntity
  8
M2
100
AcDbText
 10
3263.076909
 20
2355.317348
 40
30.000002
  1
シロ
 41
0.555556
  7
STANDARD
100
AcDbText
  0
TEXT
  5
181
100
AcDbEntity
  8
M2
100
AcDbText
 10
3263.076909
 20
2307.317393
 40
30.000002
  1
シロ
 41
0.555556
  7
STANDARD
100
AcDbText
  0
TEXT
  5
182
100
AcDbEntity
  8
M2
100
AcDbText
 10
3263.076909
 20
2225.264206
 40
30.000002
  1
アカ
 41
0.555556
  7
STANDARD
100
AcDbText
  0
TEXT
  5
183
100
AcDbEntity
  8
M2
100
AcDbText
 10
3263.076909
 20
2177.264251
 40
30.000002
  1
アカ
 41
0.555556
  7
STANDARD
100
AcDbText
  0
TEXT
  5
184
100
AcDbEntity
  8
M2
100
AcDbText
 10
3566.102019
 20
2127.650297
 40
30.000002
  1
クロ
 41
0.555556
  7
STANDARD
100
AcDbText
  0
CIRCLE
  5
185
100
AcDbEntity
  8
M2
  6
CONTINUOUS
370
13
100
AcDbCircle
 10
3091.588889
 20
2320.428698
 40
25.000001
  0
TEXT
  5
186
100
AcDbEntity
  8
M2
100
AcDbText
 10
3079.505556
 20
2303.678698
 40
33.5
  1
白
 41
0.721393
  7
STANDARD
100
AcDbText
  0
LINE
  5
187
100
AcDbEntity
  8
M2
  6
CONTINUOUS
370
13
100
AcDbLine
 10
3220.173977
 20
2282.396498
 11
3220.173977
 21
2371.547625
  0
LINE
  5
188
100
AcDbEntity
  8
M2
  6
CONTINUOUS
370
13
100
AcDbLine
 10
3220.173977
 20
2152.951658
 11
3220.173977
 21
2241.494447
  0
LINE
  5
189
100
AcDbEntity
  8
M2
  6
CONTINUOUS
370
13
100
AcDbLine
 10
3190.065076
 20
2371.547625
 11
3190.065076
 21
2282.396498
  0
LINE
  5
18A
100
AcDbEntity
  8
M2
  6
CONTINUOUS
370
13
100
AcDbLine
 10
3024.985222
 20
1750.522799
 11
3024.985222
 21
1218.453387
  0
LINE
  5
18B
100
AcDbEntity
  8
M2
  6
CONTINUOUS
370
13
100
AcDbLine
 10
3190.065076
 20
2241.494447
 11
3190.065076
 21
2152.951658
  0
LINE
  5
18C
100
AcDbEntity
  8
M2
  6
CONTINUOUS
370
13
100
AcDbLine
 10
3105.933337
 20
1778.493524
 11
3105.933337
 21
1741.894436
  0
LINE
  5
18D
100
AcDbEntity
  8
M2
  6
CONTINUOUS
370
13
100
AcDbLine
 10
2963.168721
 20
1517.389318
 11
2956.448721
 21
1503.949318
  0
LINE
  5
18E
100
AcDbEntity
  8
M2
  6
CONTINUOUS
370
13
100
AcDbLine
 10
2990.048722
 20
1517.389318
 11
2983.328721
 21
1503.949318
  0
LINE
  5
18F
100
AcDbEntity
  8
M2
  6
CONTINUOUS
370
13
100
AcDbLine
 10
3193.772539
 20
2753.144458
 11
3193.772539
 21
2718.144458
  0
LINE
  5
190
100
AcDbEntity
  8
M2
  6
CONTINUOUS
370
13
100
AcDbLine
 10
3193.772539
 20
2718.144458
 11
2948.772533
 21
2718.144458
  0
LINE
  5
191
100
AcDbEntity
  8
M2
  6
CONTINUOUS
370
13
100
AcDbLine
 10
2948.772533
 20
2753.144458
 11
2948.772533
 21
2718.144458
  0
LINE
  5
192
100
AcDbEntity
  8
M2
  6
CONTINUOUS
370
13
100
AcDbLine
 10
3193.772539
 20
2753.144458
 11
2948.772533
 21
2753.144458
  0
LINE
  5
193
100
AcDbEntity
  8
M2
  6
CONTINUOUS
370
13
100
AcDbLine
 10
3073.361723
 20
1750.522799
 11
3073.361723
 21
1170.492748
  0
LINE
  5
194
100
AcDbEntity
  8
M2
  6
CONTINUOUS
370
13
100
AcDbLine
 10
2028.341875
 20
2312.055024
 11
2043.941875
 21
2312.055024
  0
LINE
  5
195
100
AcDbEntity
  8
M2
  6
CONTINUOUS
370
13
100
AcDbLine
 10
1976.341874
 20
2265.255023
 11
1991.941874
 21
2265.255023
  0
LINE
  5
196
100
AcDbEntity
  8
M2
  6
CONTINUOUS
370
13
100
AcDbLine
 10
1898.341885
 20
2265.255023
 11
1913.941885
 21
2265.255023
  0
LINE
  5
197
100
AcDbEntity
  8
M2
  6
CONTINUOUS
370
13
100
AcDbLine
 10
2002.341875
 20
2265.255023
 11
2017.941875
 21
2265.255023
  0
LINE
  5
198
100
AcDbEntity
  8
M2
  6
CONTINUOUS
370
13
100
AcDbLine
 10
1887.941884
 20
2312.055024
 11
1887.941884
 21
2265.255023
  0
LINE
  5
199
100
AcDbEntity
  8
M2
  6
CONTINUOUS
370
13
100
AcDbLine
 10
1924.341873
 20
2312.055024
 11
1924.341873
 21
2265.255023
  0
LINE
  5
19A
100
AcDbEntity
  8
M2
  6
CONTINUOUS
370
13
100
AcDbLine
 10
2002.341875
 20
2312.055024
 11
2017.941875
 21
2312.055024
  0
LINE
  5
19B
100
AcDbEntity
  8
M2
  6
CONTINUOUS
370
13
100
AcDbLine
 10
1898.341885
 20
2312.055024
 11
1898.341885
 21
2265.255023
  0
LINE
  5
19C
100
AcDbEntity
  8
M2
  6
CONTINUOUS
370
13
100
AcDbLine
 10
1924.341873
 20
2265.255023
 11
1939.941873
 21
2265.255023
  0
LINE
  5
19D
100
AcDbEntity
  8
M2
  6
CONTINUOUS
370
13
100
AcDbLine
 10
1991.941874
 20
2312.055024
 11
1991.941874
 21
2265.255023
  0
LINE
  5
19E
100
AcDbEntity
  8
M2
  6
CONTINUOUS
370
13
100
AcDbLine
 10
1861.941884
 20
2230.155022
 11
2080.341876
 21
2230.155022
  0
LINE
  5
19F
100
AcDbEntity
  8
M2
  6
CONTINUOUS
370
13
100
AcDbLine
 10
2080.341876
 20
2340.655012
 11
1861.941884
 21
2340.655012
  0
LINE
  5
1A0
100
AcDbEntity
  8
M2
  6
CONTINUOUS
370
13
100
AcDbLine
 10
2069.941876
 20
2312.055024
 11
2069.941876
 21
2265.255023
  0
LINE
  5
1A1
100
AcDbEntity
  8
M2
  6
CONTINUOUS
370
13
100
AcDbLine
 10
1950.341873
 20
2265.255023
 11
1965.941874
 21
2265.255023
  0
LINE
  5
1A2
100
AcDbEntity
  8
M2
  6
CONTINUOUS
370
13
100
AcDbLine
 10
1924.341873
 20
2312.055024
 11
1939.941873
 21
2312.055024
  0
LINE
  5
1A3
100
AcDbEntity
  8
M2
  6
CONTINUOUS
370
13
100
AcDbLine
 10
2080.341876
 20
2230.155022
 11
2080.341876
 21
2340.655012
  0
LINE
  5
1A4
100
AcDbEntity
  8
M2
  6
CONTINUOUS
370
13
100
AcDbLine
 10
1950.341873
 20
2312.055024
 11
1965.941874
 21
2312.055024
  0
LINE
  5
1A5
100
AcDbEntity
  8
M2
  6
CONTINUOUS
370
13
100
AcDbLine
 10
1950.341873
 20
2288.655023
 11
1965.941874
 21
2288.655023
  0
LINE
  5
1A6
100
AcDbEntity
  8
M2
  6
CONTINUOUS
370
13
100
AcDbLine
 10
1924.341873
 20
2288.655023
 11
1939.941873
 21
2288.655023
  0
LINE
  5
1A7
100
AcDbEntity
  8
M2
  6
CONTINUOUS
370
13
100
AcDbLine
 10
2002.341875
 20
2288.655023
 11
2017.941875
 21
2288.655023
  0
LINE
  5
1A8
100
AcDbEntity
  8
M2
  6
CONTINUOUS
370
13
100
AcDbLine
 10
2054.341876
 20
2288.655023
 11
2069.941876
 21
2288.655023
  0
LINE
  5
1A9
100
AcDbEntity
  8
M2
  6
CONTINUOUS
370
13
100
AcDbLine
 10
1898.341885
 20
2288.655023
 11
1913.941885
 21
2288.655023
  0
LINE
  5
1AA
100
AcDbEntity
  8
M2
  6
CONTINUOUS
370
13
100
AcDbLine
 10
1872.341884
 20
2288.655023
 11
1887.941884
 21
2288.655023
  0
LINE
  5
1AB
100
AcDbEntity
  8
M2
  6
CONTINUOUS
370
13
100
AcDbLine
 10
2028.341875
 20
2288.655023
 11
2043.941875
 21
2288.655023
  0
LINE
  5
1AC
100
AcDbEntity
  8
M2
  6
CONTINUOUS
370
13
100
AcDbLine
 10
1898.341885
 20
2312.055024
 11
1913.941885
 21
2312.055024
  0
LINE
  5
1AD
100
AcDbEntity
  8
M2
  6
CONTINUOUS
370
13
100
AcDbLine
 10
1976.341874
 20
2312.055024
 11
1991.941874
 21
2312.055024
  0
LINE
  5
1AE
100
AcDbEntity
  8
M2
  6
CONTINUOUS
370
13
100
AcDbLine
 10
1913.941885
 20
2312.055024
 11
1913.941885
 21
2265.255023
  0
LINE
  5
1AF
100
AcDbEntity
  8
M2
  6
CONTINUOUS
370
13
100
AcDbLine
 10
1861.941884
 20
2340.655012
 11
1861.941884
 21
2230.155022
  0
LINE
  5
1B0
100
AcDbEntity
  8
M2
  6
CONTINUOUS
370
13
100
AcDbLine
 10
1872.341884
 20
2312.055024
 11
1872.341884
 21
2265.255023
  0
LINE
  5
1B1
100
AcDbEntity
  8
M2
  6
CONTINUOUS
370
13
100
AcDbLine
 10
1976.341874
 20
2288.655023
 11
1991.941874
 21
2288.655023
  0
LINE
  5
1B2
100
AcDbEntity
  8
M2
  6
CONTINUOUS
370
13
100
AcDbLine
 10
1872.341884
 20
2312.055024
 11
1887.941884
 21
2312.055024
  0
LINE
  5
1B3
100
AcDbEntity
  8
M2
  6
CONTINUOUS
370
13
100
AcDbLine
 10
1872.341884
 20
2265.255023
 11
1887.941884
 21
2265.255023
  0
LINE
  5
1B4
100
AcDbEntity
  8
M2
  6
CONTINUOUS
370
13
100
AcDbLine
 10
1965.941874
 20
2312.055024
 11
1965.941874
 21
2265.255023
  0
LINE
  5
1B5
100
AcDbEntity
  8
M2
  6
CONTINUOUS
370
13
100
AcDbLine
 10
1861.941884
 20
2230.155022
 11
1861.941884
 21
2340.655012
  0
LINE
  5
1B6
100
AcDbEntity
  8
M2
  6
CONTINUOUS
370
13
100
AcDbLine
 10
2043.941875
 20
2312.055024
 11
2043.941875
 21
2265.255023
  0
LINE
  5
1B7
100
AcDbEntity
  8
M2
  6
CONTINUOUS
370
13
100
AcDbLine
 10
2028.341875
 20
2312.055024
 11
2028.341875
 21
2265.255023
  0
LINE
  5
1B8
100
AcDbEntity
  8
M2
  6
CONTINUOUS
370
13
100
AcDbLine
 10
2017.941875
 20
2312.055024
 11
2017.941875
 21
2265.255023
  0
LINE
  5
1B9
100
AcDbEntity
  8
M2
  6
CONTINUOUS
370
13
100
AcDbLine
 10
2002.341875
 20
2312.055024
 11
2002.341875
 21
2265.255023
  0
LINE
  5
1BA
100
AcDbEntity
  8
M2
  6
CONTINUOUS
370
13
100
AcDbLine
 10
1939.941873
 20
2312.055024
 11
1939.941873
 21
2265.255023
  0
LINE
  5
1BB
100
AcDbEntity
  8
M2
  6
CONTINUOUS
370
13
100
AcDbLine
 10
1976.341874
 20
2312.055024
 11
1976.341874
 21
2265.255023
  0
LINE
  5
1BC
100
AcDbEntity
  8
M2
  6
CONTINUOUS
370
13
100
AcDbLine
 10
2054.341876
 20
2312.055024
 11
2054.341876
 21
2265.255023
  0
LINE
  5
1BD
100
AcDbEntity
  8
M2
  6
CONTINUOUS
370
13
100
AcDbLine
 10
1950.341873
 20
2312.055024
 11
1950.341873
 21
2265.255023
  0
LINE
  5
1BE
100
AcDbEntity
  8
M2
  6
CONTINUOUS
370
13
100
AcDbLine
 10
2028.341875
 20
2265.255023
 11
2043.941875
 21
2265.255023
  0
LINE
  5
1BF
100
AcDbEntity
  8
M2
  6
CONTINUOUS
370
13
100
AcDbLine
 10
2054.341876
 20
2312.055024
 11
2069.941876
 21
2312.055024
  0
LINE
  5
1C0
100
AcDbEntity
  8
M2
  6
CONTINUOUS
370
13
100
AcDbLine
 10
2054.341876
 20
2265.255023
 11
2069.941876
 21
2265.255023
  0
LINE
  5
1C1
100
AcDbEntity
  8
M2
  6
CONTINUOUS
370
13
100
AcDbLine
 10
2976.608721
 20
1517.389318
 11
2969.888721
 21
1503.949318
  0
CIRCLE
  5
1C2
100
AcDbEntity
  8
M2
  6
CONTINUOUS
370
13
100
AcDbCircle
 10
3205.356176
 20
2221.841272
 40
9.6
  0
CIRCLE
  5
1C3
100
AcDbEntity
  8
M2
  6
CONTINUOUS
370
13
100
AcDbCircle
 10
3205.356176
 20
2173.84127
 40
9.6
  0
CIRCLE
  5
1C4
100
AcDbEntity
  8
M2
  6
CONTINUOUS
370
13
100
AcDbCircle
 10
3205.356176
 20
2303.894448
 40
9.6
  0
CIRCLE
  5
1C5
100
AcDbEntity
  8
M2
  6
CONTINUOUS
370
13
100
AcDbCircle
 10
3073.361723
 20
1760.122799
 40
9.6
  0
CIRCLE
  5
1C6
100
AcDbEntity
  8
M2
  6
CONTINUOUS
370
13
100
AcDbCircle
 10
3205.356176
 20
2351.894449
 40
9.6
  0
ARC
  5
1C7
100
AcDbEntity
  8
M2
  6
CONTINUOUS
370
13
100
AcDbCircle
 10
1905.456172
 20
2789.349684
 40
9.6
100
AcDbArc
 50
0.0
 51
90.0
  0
TEXT
  5
1C8
100
AcDbEntity
  8
M2
100
AcDbText
 10
3120.065025
 20
2579.47812
 40
50.0
  1
ＣＮ２９
 50
270.000001
 41
0.4375
  7
STANDARD
100
AcDbText
  0
TEXT
  5
1C9
100
AcDbEntity
  8
M2
100
AcDbText
 10
1842.928766
 20
2159.394492
 40
45.0
  1
ディップスイッチ
 41
0.645833
  7
STANDARD
100
AcDbText
  0
TEXT
  5
1CA
100
AcDbEntity
  8
M2
100
AcDbText
 10
1677.11832
 20
1472.460149
 40
50.0
  1
トランス
 41
0.645833
  7
STANDARD
100
AcDbText
  0
TEXT
  5
1CB
100
AcDbEntity
  8
M2
100
AcDbText
 10
3124.220565
 20
2242.53048
 40
50.0
  1
ＣＮ２３
 50
270.000001
 41
0.4375
  7
STANDARD
100
AcDbText
  0
LINE
  5
1CC
100
AcDbEntity
  8
M2
  6
DIVIDE
370
13
100
AcDbLine
 10
1674.862167
 20
1242.47715
 11
1674.862167
 21
1146.477148
  0
LINE
  5
1CD
100
AcDbEntity
  8
M2
  6
CONTINUOUS
370
13
100
AcDbLine
 10
1809.45617
 20
2798.949684
 11
1780.911007
 21
2798.949684
  0
LINE
  5
1CE
100
AcDbEntity
  8
M2
  6
CONTINUOUS
370
13
100
AcDbLine
 10
1771.311007
 20
2743.991071
 11
1771.311007
 21
2789.349684
  0
LINE
  5
1CF
100
AcDbEntity
  8
M2
  6
CONTINUOUS
370
13
100
AcDbLine
 10
2001.711012
 20
2743.991071
 11
2001.711012
 21
2789.349684
  0
LINE
  5
1D0
100
AcDbEntity
  8
M2
  6
CONTINUOUS
370
13
100
AcDbLine
 10
1876.656172
 20
2798.949684
 11
1867.056172
 21
2798.949684
  0
LINE
  5
1D1
100
AcDbEntity
  8
M2
  6
CONTINUOUS
370
13
100
AcDbLine
 10
1800.111008
 20
2743.991071
 11
1800.111008
 21
2789.349684
  0
LINE
  5
1D2
100
AcDbEntity
  8
M2
  6
CONTINUOUS
370
13
100
AcDbLine
 10
1838.256171
 20
2798.949684
 11
1809.711008
 21
2798.949684
  0
LINE
  5
1D3
100
AcDbEntity
  8
M2
  6
CONTINUOUS
370
13
100
AcDbLine
 10
1915.056173
 20
2743.980921
 11
1915.056173
 21
2789.349684
  0
LINE
  5
1D4
100
AcDbEntity
  8
M2
  6
CONTINUOUS
370
13
100
AcDbLine
 10
1905.71101
 20
2798.949684
 11
1934.765848
 21
2798.949684
  0
LINE
  5
1D5
100
AcDbEntity
  8
M2
  6
CONTINUOUS
370
13
100
AcDbLine
 10
1852.266446
 20
1741.894436
 11
1852.266446
 21
1778.493524
  0
LINE
  5
1D6
100
AcDbEntity
  8
M2
  6
CONTINUOUS
370
13
100
AcDbLine
 10
1852.266446
 20
1741.894436
 11
1650.611179
 21
1741.894436
  0
LINE
  5
1D7
100
AcDbEntity
  8
M2
  6
CONTINUOUS
370
13
100
AcDbLine
 10
1775.695732
 20
1750.494436
 11
1775.695732
 21
1651.096421
  0
LINE
  5
1D8
100
AcDbEntity
  8
M2
  6
CONTINUOUS
370
13
100
AcDbLine
 10
1794.951082
 20
1674.737247
 11
1702.79108
 21
1674.737247
  0
LINE
  5
1D9
100
AcDbEntity
  8
M2
  6
CONTINUOUS
370
13
100
AcDbLine
 10
1794.951082
 20
1536.497244
 11
1794.951082
 21
1674.737247
  0
LINE
  5
1DA
100
AcDbEntity
  8
M2
  6
CONTINUOUS
370
13
100
AcDbLine
 10
1679.69573
 20
1558.936419
 11
1679.69573
 21
1750.494436
  0
LINE
  5
1DB
100
AcDbEntity
  8
M2
  6
DIVIDE
370
13
100
AcDbLine
 10
2032.669588
 20
1146.492748
 11
2032.669588
 21
1242.49275
  0
LINE
  5
63
102
{ACAD_REACTORS
330
62
102
}
330
1F
100
AcDbEntity
  8
M2
  6
DIVIDE
370
13
100
AcDbLine
 10
2032.669588
 20
1242.49275
 11
2128.66959
 21
1242.49275
  0
LINE
  5
1DC
100
AcDbEntity
  8
M2
  6
CONTINUOUS
370
13
100
AcDbLine
 10
2047.069588
 20
1218.492749
 11
1660.462154
 21
1218.492749
  0
LINE
  5
1DD
100
AcDbEntity
  8
M2
  6
CONTINUOUS
370
13
100
AcDbLine
 10
2047.069588
 20
1170.492748
 11
1660.462154
 21
1170.492748
  0
LINE
  5
1DE
100
AcDbEntity
  8
M2
  6
DIVIDE
370
13
100
AcDbLine
 10
2128.66959
 20
1146.492748
 11
2032.669588
 21
1146.492748
  0
LINE
  5
1DF
100
AcDbEntity
  8
M2
  6
DIVIDE
370
13
100
AcDbLine
 10
2128.66959
 20
1242.49275
 11
2128.66959
 21
1146.492748
  0
LINE
  5
1E0
100
AcDbEntity
  8
M2
  6
CONTINUOUS
370
13
100
AcDbLine
 10
2095.069589
 20
1218.492749
 11
2066.269588
 21
1218.492749
  0
LINE
  5
1E1
100
AcDbEntity
  8
M2
  6
CONTINUOUS
370
13
100
AcDbLine
 10
3073.361723
 20
1170.492748
 11
2114.26959
 21
1170.492748
  0
LINE
  5
1E2
100
AcDbEntity
  8
M2
  6
CONTINUOUS
370
13
100
AcDbLine
 10
2095.069589
 20
1170.492748
 11
2066.269588
 21
1170.492748
  0
LINE
  5
1E3
100
AcDbEntity
  8
M2
  6
CONTINUOUS
370
13
100
AcDbLine
 10
3024.985222
 20
1218.453387
 11
2114.26959
 21
1218.487999
  0
CIRCLE
  5
1E4
100
AcDbEntity
  8
M2
  6
CONTINUOUS
370
13
100
AcDbCircle
 10
1650.862167
 20
1007.201982
 40
9.6
  0
CIRCLE
  5
1E5
100
AcDbEntity
  8
M2
  6
CONTINUOUS
370
13
100
AcDbCircle
 10
1602.862166
 20
1055.201983
 40
9.6
  0
CIRCLE
  5
1E6
100
AcDbEntity
  8
M2
  6
CONTINUOUS
370
13
100
AcDbCircle
 10
1650.862167
 20
1170.477148
 40
9.6
  0
CIRCLE
  5
1E7
100
AcDbEntity
  8
M2
  6
CONTINUOUS
370
13
100
AcDbCircle
 10
1602.862166
 20
1007.201982
 40
9.6
  0
CIRCLE
  5
1E8
100
AcDbEntity
  8
M2
  6
CONTINUOUS
370
13
100
AcDbCircle
 10
1650.862167
 20
1055.201983
 40
9.6
  0
CIRCLE
  5
1E9
100
AcDbEntity
  8
M2
  6
CONTINUOUS
370
13
100
AcDbCircle
 10
2457.76586
 20
2734.394458
 40
9.6
  0
CIRCLE
  5
1EA
100
AcDbEntity
  8
M2
  6
CONTINUOUS
370
13
100
AcDbCircle
 10
2284.965856
 20
2734.394458
 40
9.6
  0
CIRCLE
  5
1EB
100
AcDbEntity
  8
M2
  6
CONTINUOUS
370
13
100
AcDbCircle
 10
1857.965846
 20
2734.394458
 40
9.6
  0
CIRCLE
  5
1EC
100
AcDbEntity
  8
M2
  6
CONTINUOUS
370
13
100
AcDbCircle
 10
1829.165846
 20
2734.394458
 40
9.6
  0
CIRCLE
  5
1ED
100
AcDbEntity
  8
M2
  6
CONTINUOUS
370
13
100
AcDbCircle
 10
1915.565848
 20
2734.394458
 40
9.6
  0
CIRCLE
  5
1EE
100
AcDbEntity
  8
M2
  6
CONTINUOUS
370
13
100
AcDbCircle
 10
1771.565844
 20
2734.394458
 40
9.6
  0
CIRCLE
  5
1EF
100
AcDbEntity
  8
M2
  6
CONTINUOUS
370
13
100
AcDbCircle
 10
1800.365845
 20
2734.394458
 40
9.6
  0
CIRCLE
  5
1F0
100
AcDbEntity
  8
M2
  6
CONTINUOUS
370
13
100
AcDbCircle
 10
1886.765847
 20
2734.394458
 40
9.6
  0
CIRCLE
  5
1F1
100
AcDbEntity
  8
M2
  6
CONTINUOUS
370
13
100
AcDbCircle
 10
1886.256172
 20
3124.958679
 40
38.400001
  0
CIRCLE
  5
1F2
100
AcDbEntity
  8
M2
  6
CONTINUOUS
370
13
100
AcDbCircle
 10
1944.365848
 20
2734.394458
 40
9.6
  0
CIRCLE
  5
1F3
100
AcDbEntity
  8
M2
  6
CONTINUOUS
370
13
100
AcDbCircle
 10
2454.663497
 20
2922.047687
 40
38.400001
  0
CIRCLE
  5
1F4
100
AcDbEntity
  8
M2
  6
CONTINUOUS
370
13
100
AcDbCircle
 10
2371.365858
 20
2734.394458
 40
9.6
  0
CIRCLE
  5
1F5
100
AcDbEntity
  8
M2
  6
CONTINUOUS
370
13
100
AcDbCircle
 10
2313.765857
 20
2734.394458
 40
9.6
  0
CIRCLE
  5
1F6
100
AcDbEntity
  8
M2
  6
CONTINUOUS
370
13
100
AcDbCircle
 10
2256.165855
 20
2734.394458
 40
9.6
  0
CIRCLE
  5
1F7
100
AcDbEntity
  8
M2
  6
CONTINUOUS
370
13
100
AcDbCircle
 10
2342.565857
 20
2734.394458
 40
9.6
  0
CIRCLE
  5
1F8
100
AcDbEntity
  8
M2
  6
CONTINUOUS
370
13
100
AcDbCircle
 10
2486.56586
 20
2734.394458
 40
9.6
  0
CIRCLE
  5
1F9
100
AcDbEntity
  8
M2
  6
CONTINUOUS
370
13
100
AcDbCircle
 10
2400.165858
 20
2734.394458
 40
9.6
  0
CIRCLE
  5
1FA
100
AcDbEntity
  8
M2
  6
CONTINUOUS
370
13
100
AcDbCircle
 10
2428.965859
 20
2734.394458
 40
9.6
  0
TEXT
  5
1FB
100
AcDbEntity
  8
M2
100
AcDbText
 10
3122.652915
 20
2374.374813
 40
50.0
  1
ＣＮ２２
 50
270.000001
 41
0.4375
  7
STANDARD
100
AcDbText
  0
TEXT
  5
1FC
100
AcDbEntity
  8
M2
100
AcDbText
 10
1177.835091
 20
1171.56674
 40
50.0
  1
単相２００Ｖ電源
 41
0.645833
  7
STANDARD
100
AcDbText
  0
LINE
  5
1FD
100
AcDbEntity
  8
M2
  6
CONTINUOUS
370
13
100
AcDbLine
 10
1934.256173
 20
2798.949684
 11
1963.311011
 21
2798.949684
  0
LINE
  5
1FE
100
AcDbEntity
  8
M2
  6
CONTINUOUS
370
13
100
AcDbLine
 10
3105.933337
 20
1778.493524
 11
2950.191633
 21
1778.493524
  0
LINE
  5
1FF
100
AcDbEntity
  8
M2
  6
CONTINUOUS
370
13
100
AcDbLine
 10
1829.165846
 20
2743.994458
 11
1829.165846
 21
2789.349684
  0
LINE
  5
200
100
AcDbEntity
  8
M2
  6
CONTINUOUS
370
13
100
AcDbLine
 10
1944.365848
 20
2743.994458
 11
1944.365848
 21
2789.349684
  0
LINE
  5
201
100
AcDbEntity
  8
M2
  6
CONTINUOUS
370
13
100
AcDbLine
 10
1895.856172
 20
2798.949684
 11
1905.456172
 21
2798.949684
  0
LINE
  5
202
100
AcDbEntity
  8
M2
  6
CONTINUOUS
370
13
100
AcDbLine
 10
1886.256172
 20
2743.980921
 11
1886.256172
 21
3086.558678
  0
LINE
  5
203
100
AcDbEntity
  8
M2
  6
CONTINUOUS
370
13
100
AcDbLine
 10
1660.461517
 20
1055.31452
 11
3555.022547
 21
1055.31452
  0
LINE
  5
204
100
AcDbEntity
  8
M2
  6
CONTINUOUS
370
13
100
AcDbLine
 10
1775.695732
 20
1558.936419
 11
1823.695733
 21
1558.936419
  0
LINE
  5
205
100
AcDbEntity
  8
M2
  6
CONTINUOUS
370
13
100
AcDbLine
 10
1823.695733
 20
1750.494436
 11
1823.695733
 21
1557.748557
  0
LINE
  5
206
100
AcDbEntity
  8
M2
  6
CONTINUOUS
370
13
100
AcDbLine
 10
1702.79108
 20
1674.737247
 11
1702.79108
 21
1536.497244
  0
LINE
  5
207
100
AcDbEntity
  8
M2
  6
CONTINUOUS
370
13
100
AcDbLine
 10
1679.69573
 20
1558.936419
 11
1727.296481
 21
1558.943344
  0
LINE
  5
208
100
AcDbEntity
  8
M2
  6
CONTINUOUS
370
13
100
AcDbLine
 10
1852.266446
 20
1778.493524
 11
1650.611179
 21
1778.493524
  0
LINE
  5
209
100
AcDbEntity
  8
M2
  6
CONTINUOUS
370
13
100
AcDbLine
 10
1702.79108
 20
1536.497244
 11
1794.951082
 21
1536.497244
  0
LINE
  5
20A
100
AcDbEntity
  8
M2
  6
CONTINUOUS
370
13
100
AcDbLine
 10
1727.695731
 20
1651.096421
 11
1727.695731
 21
1750.494436
  0
LINE
  5
20B
100
AcDbEntity
  8
M2
  6
CONTINUOUS
370
13
100
AcDbLine
 10
1650.611179
 20
1778.493524
 11
1650.611179
 21
1741.894436
  0
LINE
  5
20C
100
AcDbEntity
  8
M2
  6
CONTINUOUS
370
13
100
AcDbLine
 10
3220.173977
 20
2441.955151
 11
3190.065076
 21
2441.955151
  0
LINE
  5
20D
100
AcDbEntity
  8
M2
  6
CONTINUOUS
370
13
100
AcDbLine
 10
3220.173977
 20
2441.955151
 11
3220.173977
 21
2529.823566
  0
LINE
  5
20E
100
AcDbEntity
  8
M2
  6
CONTINUOUS
370
13
100
AcDbLine
 10
3190.065076
 20
2529.823566
 11
3190.065076
 21
2441.955151
  0
LINE
  5
20F
100
AcDbEntity
  8
M2
  6
CONTINUOUS
370
13
100
AcDbLine
 10
3220.173977
 20
2529.823566
 11
3220.173977
 21
2623.941993
  0
LINE
  5
210
100
AcDbEntity
  8
M2
  6
CONTINUOUS
370
13
100
AcDbLine
 10
3451.635169
 20
2604.741993
 11
3214.956177
 21
2604.741993
  0
LINE
  5
211
100
AcDbEntity
  8
M2
  6
CONTINUOUS
370
13
100
AcDbLine
 10
3220.173977
 20
2623.941993
 11
3190.065076
 21
2623.941993
  0
LINE
  5
212
100
AcDbEntity
  8
M2
  6
CONTINUOUS
370
13
100
AcDbLine
 10
3451.635169
 20
2556.741992
 11
3214.956177
 21
2556.741992
  0
LINE
  5
213
100
AcDbEntity
  8
M2
  6
CONTINUOUS
370
13
100
AcDbLine
 10
3190.065076
 20
2623.941993
 11
3190.065076
 21
2529.823566
  0
LINE
  5
214
100
AcDbEntity
  8
M2
  6
CONTINUOUS
370
13
100
AcDbLine
 10
3682.4744
 20
2621.905643
 11
3788.074402
 21
2621.905643
  0
LINE
  5
215
100
AcDbEntity
  8
M2
  6
DASHED
370
13
100
AcDbLine
 10
3470.823257
 20
2557.220004
 11
3682.4744
 21
2557.220004
  0
LINE
  5
216
100
AcDbEntity
  8
M2
  6
CONTINUOUS
370
13
100
AcDbLine
 10
3788.074402
 20
2540.705641
 11
3682.4744
 21
2540.705641
  0
LINE
  5
217
100
AcDbEntity
  8
M2
  6
CONTINUOUS
370
13
100
AcDbLine
 10
3682.4744
 20
2540.705641
 11
3682.4744
 21
2621.905643
  0
LINE
  5
218
100
AcDbEntity
  8
M2
  6
CONTINUOUS
370
13
100
AcDbLine
 10
3788.074402
 20
2621.905643
 11
3788.074402
 21
2540.705641
  0
LINE
  5
219
100
AcDbEntity
  8
M2
  6
DASHED
370
13
100
AcDbLine
 10
3470.83517
 20
2604.741993
 11
3682.4744
 21
2604.741993
  0
LINE
  5
21A
100
AcDbEntity
  8
M2
  6
CONTINUOUS
370
13
100
AcDbLine
 10
2504.339923
 20
2753.012608
 11
2504.339923
 21
2718.012608
  0
LINE
  5
21B
100
AcDbEntity
  8
M2
  6
CONTINUOUS
370
13
100
AcDbLine
 10
2504.339923
 20
2753.012608
 11
2238.779605
 21
2753.012608
  0
LINE
  5
21C
100
AcDbEntity
  8
M2
  6
CONTINUOUS
370
13
100
AcDbLine
 10
2457.76586
 20
2743.994458
 11
2457.76586
 21
2883.773211
  0
LINE
  5
21D
100
AcDbEntity
  8
M2
  6
CONTINUOUS
370
13
100
AcDbLine
 10
2486.56586
 20
2743.994458
 11
2486.56586
 21
2789.345322
  0
LINE
  5
21E
100
AcDbEntity
  8
M2
  6
CONTINUOUS
370
13
100
AcDbLine
 10
2428.965859
 20
2743.994458
 11
2428.965859
 21
2789.345322
  0
LINE
  5
21F
100
AcDbEntity
  8
M2
  6
CONTINUOUS
370
13
100
AcDbLine
 10
2467.36586
 20
2798.945322
 11
2476.96586
 21
2798.945322
  0
LINE
  5
220
100
AcDbEntity
  8
M2
  6
CONTINUOUS
370
13
100
AcDbLine
 10
2475.656048
 20
2808.756947
 11
2442.728047
 21
2841.684948
  0
LINE
  5
221
100
AcDbEntity
  8
M2
  6
CONTINUOUS
370
13
100
AcDbLine
 10
2475.656048
 20
2826.309848
 11
2442.728047
 21
2859.237848
  0
LINE
  5
222
100
AcDbEntity
  8
M2
  6
CONTINUOUS
370
13
100
AcDbLine
 10
2448.16586
 20
2798.945322
 11
2438.565859
 21
2798.945322
  0
CIRCLE
  5
223
100
AcDbEntity
  8
M2
  6
CONTINUOUS
370
13
100
AcDbCircle
 10
2104.669589
 20
1218.492749
 40
9.6
  0
CIRCLE
  5
224
100
AcDbEntity
  8
M2
  6
CONTINUOUS
370
13
100
AcDbCircle
 10
2056.669588
 20
1170.492748
 40
9.6
  0
CIRCLE
  5
225
100
AcDbEntity
  8
M2
  6
CONTINUOUS
370
13
100
AcDbCircle
 10
2056.669588
 20
1218.492749
 40
9.6
  0
CIRCLE
  5
226
100
AcDbEntity
  8
M2
  6
CONTINUOUS
370
13
100
AcDbCircle
 10
2104.669589
 20
1170.492748
 40
9.6
  0
CIRCLE
  5
227
100
AcDbEntity
  8
M2
  6
CONTINUOUS
370
13
100
AcDbCircle
 10
1973.165849
 20
2734.394458
 40
9.6
  0
CIRCLE
  5
228
100
AcDbEntity
  8
M2
  6
CONTINUOUS
370
13
100
AcDbCircle
 10
2001.96585
 20
2734.394458
 40
9.6
  0
CIRCLE
  5
229
100
AcDbEntity
  8
M2
  6
CONTINUOUS
370
13
100
AcDbCircle
 10
1602.862166
 20
1218.477149
 40
9.6
  0
CIRCLE
  5
22A
100
AcDbEntity
  8
M2
  6
CONTINUOUS
370
13
100
AcDbCircle
 10
1650.862167
 20
1218.477149
 40
9.6
  0
CIRCLE
  5
22B
100
AcDbEntity
  8
M2
  6
CONTINUOUS
370
13
100
AcDbCircle
 10
1602.862166
 20
1170.477148
 40
9.6
  0
CIRCLE
  5
22C
100
AcDbEntity
  8
M2
  6
CONTINUOUS
370
13
100
AcDbCircle
 10
3205.356176
 20
2462.623564
 40
9.6
  0
CIRCLE
  5
22D
100
AcDbEntity
  8
M2
  6
CONTINUOUS
370
13
100
AcDbCircle
 10
3205.356176
 20
2510.623566
 40
9.6
  0
CIRCLE
  5
22E
100
AcDbEntity
  8
M2
  6
CONTINUOUS
370
13
100
AcDbCircle
 10
3461.23517
 20
2556.741992
 40
9.6
  0
CIRCLE
  5
22F
100
AcDbEntity
  8
M2
  6
CONTINUOUS
370
13
100
AcDbCircle
 10
3461.23517
 20
2604.741993
 40
9.6
  0
CIRCLE
  5
230
100
AcDbEntity
  8
M2
  6
CONTINUOUS
370
13
100
AcDbCircle
 10
3205.356176
 20
2556.741992
 40
9.6
  0
CIRCLE
  5
231
100
AcDbEntity
  8
M2
  6
CONTINUOUS
370
13
100
AcDbCircle
 10
3205.356176
 20
2604.741993
 40
9.6
  0
ARC
  5
232
100
AcDbEntity
  8
M2
  6
CONTINUOUS
370
13
100
AcDbCircle
 10
1775.695732
 20
1639.576421
 40
11.52
100
AcDbArc
 50
90.0
 51
270.0
  0
ARC
  5
233
100
AcDbEntity
  8
M2
  6
CONTINUOUS
370
13
100
AcDbCircle
 10
1775.695732
 20
1593.49642
 40
11.52
100
AcDbArc
 50
90.0
 51
270.0
  0
ARC
  5
234
100
AcDbEntity
  8
M2
  6
CONTINUOUS
370
13
100
AcDbCircle
 10
1727.296481
 20
1570.463344
 40
11.52
100
AcDbArc
 50
270.0
 51
450.0
  0
ARC
  5
235
100
AcDbEntity
  8
M2
  6
CONTINUOUS
370
13
100
AcDbCircle
 10
1727.296481
 20
1593.503345
 40
11.52
100
AcDbArc
 50
270.0
 51
450.0
  0
ARC
  5
236
100
AcDbEntity
  8
M2
  6
CONTINUOUS
370
13
100
AcDbCircle
 10
1775.695732
 20
1570.456419
 40
11.52
100
AcDbArc
 50
90.0
 51
270.0
  0
ARC
  5
237
100
AcDbEntity
  8
M2
  6
CONTINUOUS
370
13
100
AcDbCircle
 10
1775.695732
 20
1616.536421
 40
11.52
100
AcDbArc
 50
90.0
 51
270.0
  0
ARC
  5
238
100
AcDbEntity
  8
M2
  6
CONTINUOUS
370
13
100
AcDbCircle
 10
1727.296481
 20
1616.543346
 40
11.52
100
AcDbArc
 50
270.0
 51
450.0
  0
ARC
  5
239
100
AcDbEntity
  8
M2
  6
CONTINUOUS
370
13
100
AcDbCircle
 10
1727.296481
 20
1639.583346
 40
11.52
100
AcDbArc
 50
270.0
 51
450.0
  0
ARC
  5
23A
100
AcDbEntity
  8
M2
  6
CONTINUOUS
370
13
100
AcDbCircle
 10
1934.765848
 20
2789.349684
 40
9.6
100
AcDbArc
 50
0.0
 51
90.0
  0
ARC
  5
23B
100
AcDbEntity
  8
M2
  6
CONTINUOUS
370
13
100
AcDbCircle
 10
2476.96586
 20
2789.345322
 40
9.6
100
AcDbArc
 50
0.0
 51
90.0
  0
ARC
  5
23C
100
AcDbEntity
  8
M2
  6
CONTINUOUS
370
13
100
AcDbCircle
 10
2467.36586
 20
2808.545322
 40
9.6
100
AcDbArc
 50
180.0
 51
270.0
  0
ARC
  5
23D
100
AcDbEntity
  8
M2
  6
CONTINUOUS
370
13
100
AcDbCircle
 10
2438.565859
 20
2789.345322
 40
9.6
100
AcDbArc
 50
90.0
 51
180.0
  0
ARC
  5
23E
100
AcDbEntity
  8
M2
  6
CONTINUOUS
370
13
100
AcDbCircle
 10
2448.16586
 20
2808.545322
 40
9.6
100
AcDbArc
 50
270.0
 51
360.0
  0
TEXT
  5
23F
100
AcDbEntity
  8
M2
100
AcDbText
 10
1853.995203
 20
2375.112194
 40
45.0
  1
ＳＷ１
 41
0.645833
  7
STANDARD
100
AcDbText
  0
CIRCLE
  5
240
100
AcDbEntity
  8
M2
  6
CONTINUOUS
370
13
100
AcDbCircle
 10
3090.080558
 20
2196.744766
 40
25.000001
  0
TEXT
  5
241
100
AcDbEntity
  8
M2
100
AcDbText
 10
3077.997224
 20
2179.994766
 40
33.5
  1
赤
 41
0.721393
  7
STANDARD
100
AcDbText
  0
CIRCLE
  5
242
100
AcDbEntity
  8
M2
  6
CONTINUOUS
370
13
100
AcDbCircle
 10
3096.113883
 20
2527.071426
 40
25.000001
  0
TEXT
  5
243
100
AcDbEntity
  8
M2
100
AcDbText
 10
3084.03055
 20
2510.321426
 40
33.5
  1
白
 41
0.721393
  7
STANDARD
100
AcDbText
  0
TEXT
  5
244
100
AcDbEntity
  8
M69
100
AcDbText
 10
4978.125111
 20
50.000001
 40
62.5
  1
００２
 41
0.5
  7
STANDARD
100
AcDbText
  0
TEXT
  5
245
100
AcDbEntity
  8
M71
100
AcDbText
 10
3996.458423
 20
337.500008
 40
62.5
  1
ＮＴＳ
 41
0.633333
  7
STANDARD
100
AcDbText
  0
TEXT
  5
246
100
AcDbEntity
  8
M73
100
AcDbText
 10
4431.979419
 20
125.000003
 40
100.0
  1
３ＹＤＡＡ６６６９
 41
0.447917
  7
STANDARD
100
AcDbText
  0
TEXT
  5
247
100
AcDbEntity
  8
M73
100
AcDbText
 10
906.979186
 20
3584.999927
 40
100.0
  1
３ＹＤＡＡ６６６９
 50
180.000005
 41
0.552083
  7
STANDARD
100
AcDbText
  0
CIRCLE
  5
248
100
AcDbEntity
  8
M74
  6
CONTINUOUS
370
25
100
AcDbCircle
 10
5031.250112
 20
218.750005
 40
93.750002
  0
TEXT
  5
249
100
AcDbEntity
  8
M74
100
AcDbText
 10
4971.354278
 20
245.00001
 40
37.5
  1
ＲＥＧＤ
 41
0.694444
  7
STANDARD
100
AcDbText
  0
TEXT
  5
24A
100
AcDbEntity
  8
M74
100
AcDbText
 10
4971.354278
 20
193.750004
 40
37.5
  1
２００４
 41
0.694444
  7
STANDARD
100
AcDbText
  0
TEXT
  5
24B
100
AcDbEntity
  8
M74
100
AcDbText
 10
4971.354278
 20
160.000006
 40
37.5
  1
１００６
 41
0.694444
  7
STANDARD
100
AcDbText
  0
TEXT
  5
24C
100
AcDbEntity
  8
M75
100
AcDbText
 10
3114.166736
 20
331.250007
 40
50.0
  1
Ｓ．Ｋａｔａｇｉｒｉ
 41
0.333333
  7
STANDARD
100
AcDbText
  0
TEXT
  5
24D
100
AcDbEntity
  8
M75
100
AcDbText
 10
3445.83341
 20
331.250007
 40
43.75
  1
２００４－１０－０５
 41
0.47619
  7
STANDARD
100
AcDbText
  0
TEXT
  5
24E
100
AcDbEntity
  8
M75
100
AcDbText
 10
3114.166736
 20
193.750004
 40
50.0
  1
Ｋ．Ｆｕｊｉ
 41
0.333333
  7
STANDARD
100
AcDbText
  0
TEXT
  5
24F
100
AcDbEntity
  8
M75
100
AcDbText
 10
3445.83341
 20
193.750004
 40
43.75
  1
２００４－１０－０５
 41
0.47619
  7
STANDARD
100
AcDbText
  0
TEXT
  5
250
100
AcDbEntity
  8
M75
100
AcDbText
 10
3114.166736
 20
125.000003
 40
50.0
  1
Ｋ．Ｆｕｊｉ
 41
0.333333
  7
STANDARD
100
AcDbText
  0
TEXT
  5
251
100
AcDbEntity
  8
M75
100
AcDbText
 10
3445.83341
 20
125.000003
 40
43.75
  1
２００４－１０－０５
 41
0.47619
  7
STANDARD
100
AcDbText
  0
LINE
  5
252
100
AcDbEntity
  8
M79
  6
CONTINUOUS
370
25
 62
     7
100
AcDbLine
 10
312.500007
 20
3587.50008
 11
5125.000115
 21
3587.50008
  0
LINE
  5
253
100
AcDbEntity
  8
M79
  6
CONTINUOUS
370
25
 62
     7
100
AcDbLine
 10
312.500007
 20
125.000003
 11
312.500007
 21
3587.50008
  0
LINE
  5
254
100
AcDbEntity
  8
M79
  6
CONTINUOUS
370
25
 62
     7
100
AcDbLine
 10
5125.000115
 20
125.000003
 11
5125.000115
 21
3587.50008
  0
LINE
  5
255
100
AcDbEntity
  8
M79
  6
CONTINUOUS
370
13
 62
     7
100
AcDbLine
 10
0.0
 20
1856.250041
 11
312.500007
 21
1856.250041
  0
LINE
  5
256
100
AcDbEntity
  8
M79
  6
CONTINUOUS
370
13
 62
     7
100
AcDbLine
 10
5125.000115
 20
1856.250041
 11
5250.000117
 21
1856.250041
  0
LINE
  5
257
100
AcDbEntity
  8
M79
  6
CONTINUOUS
370
13
 62
     7
100
AcDbLine
 10
250.000006
 20
1231.250028
 11
312.500007
 21
1231.250028
  0
LINE
  5
258
100
AcDbEntity
  8
M79
  6
CONTINUOUS
370
13
 62
     7
100
AcDbLine
 10
250.000006
 20
606.250014
 11
312.500007
 21
606.250014
  0
LINE
  5
259
100
AcDbEntity
  8
M79
  6
CONTINUOUS
370
13
 62
     7
100
AcDbLine
 10
250.000006
 20
2481.250055
 11
312.500007
 21
2481.250055
  0
LINE
  5
25A
100
AcDbEntity
  8
M79
  6
CONTINUOUS
370
13
 62
     7
100
AcDbLine
 10
250.000006
 20
3106.250069
 11
312.500007
 21
3106.250069
  0
LINE
  5
25B
100
AcDbEntity
  8
M79
  6
CONTINUOUS
370
13
 62
     7
100
AcDbLine
 10
5125.000115
 20
1231.250028
 11
5187.500116
 21
1231.250028
  0
LINE
  5
25C
100
AcDbEntity
  8
M79
  6
CONTINUOUS
370
13
 62
     7
100
AcDbLine
 10
5125.000115
 20
606.250014
 11
5187.500116
 21
606.250014
  0
LINE
  5
25D
100
AcDbEntity
  8
M79
  6
CONTINUOUS
370
13
 62
     7
100
AcDbLine
 10
5125.000115
 20
2481.250055
 11
5187.500116
 21
2481.250055
  0
LINE
  5
25E
100
AcDbEntity
  8
M79
  6
CONTINUOUS
370
13
 62
     7
100
AcDbLine
 10
5125.000115
 20
3106.250069
 11
5187.500116
 21
3106.250069
  0
LINE
  5
25F
100
AcDbEntity
  8
M79
  6
CONTINUOUS
370
13
 62
     7
100
AcDbLine
 10
2625.000059
 20
0.0
 11
2625.000059
 21
125.000003
  0
LINE
  5
260
100
AcDbEntity
  8
M79
  6
CONTINUOUS
370
13
 62
     7
100
AcDbLine
 10
2000.000045
 20
62.500001
 11
2000.000045
 21
125.000003
  0
LINE
  5
261
100
AcDbEntity
  8
M79
  6
CONTINUOUS
370
13
 62
     7
100
AcDbLine
 10
1375.000031
 20
62.500001
 11
1375.000031
 21
125.000003
  0
LINE
  5
262
100
AcDbEntity
  8
M79
  6
CONTINUOUS
370
13
 62
     7
100
AcDbLine
 10
750.000017
 20
62.500001
 11
750.000017
 21
125.000003
  0
LINE
  5
263
100
AcDbEntity
  8
M79
  6
CONTINUOUS
370
13
 62
     7
100
AcDbLine
 10
3250.000073
 20
62.500001
 11
3250.000073
 21
125.000003
  0
LINE
  5
264
100
AcDbEntity
  8
M79
  6
CONTINUOUS
370
13
 62
     7
100
AcDbLine
 10
3875.000087
 20
62.500001
 11
3875.000087
 21
125.000003
  0
LINE
  5
265
100
AcDbEntity
  8
M79
  6
CONTINUOUS
370
13
 62
     7
100
AcDbLine
 10
750.000017
 20
3587.50008
 11
750.000017
 21
3650.000082
  0
LINE
  5
266
100
AcDbEntity
  8
M79
  6
CONTINUOUS
370
13
 62
     7
100
AcDbLine
 10
1375.000031
 20
3587.50008
 11
1375.000031
 21
3650.000082
  0
LINE
  5
267
100
AcDbEntity
  8
M79
  6
CONTINUOUS
370
13
 62
     7
100
AcDbLine
 10
2000.000045
 20
3587.50008
 11
2000.000045
 21
3650.000082
  0
LINE
  5
268
100
AcDbEntity
  8
M79
  6
CONTINUOUS
370
13
 62
     7
100
AcDbLine
 10
2625.000059
 20
3587.50008
 11
2625.000059
 21
3712.500083
  0
LINE
  5
269
100
AcDbEntity
  8
M79
  6
CONTINUOUS
370
13
 62
     7
100
AcDbLine
 10
3250.000073
 20
3587.50008
 11
3250.000073
 21
3650.000082
  0
LINE
  5
26A
100
AcDbEntity
  8
M79
  6
CONTINUOUS
370
13
 62
     7
100
AcDbLine
 10
3875.000087
 20
3587.50008
 11
3875.000087
 21
3650.000082
  0
LINE
  5
26B
100
AcDbEntity
  8
M79
  6
CONTINUOUS
370
13
 62
     7
100
AcDbLine
 10
4500.000101
 20
3587.50008
 11
4500.000101
 21
3650.000082
  0
LINE
  5
26C
100
AcDbEntity
  8
M79
  6
CONTINUOUS
370
13
 62
     7
100
AcDbLine
 10
4500.000101
 20
62.500001
 11
4500.000101
 21
125.000003
  0
LINE
  5
26D
100
AcDbEntity
  8
M79
  6
CONTINUOUS
370
25
 62
     7
100
AcDbLine
 10
312.500007
 20
3425.000077
 11
908.749982
 21
3425.000077
  0
LINE
  5
26E
100
AcDbEntity
  8
M79
  6
CONTINUOUS
370
13
 62
     7
100
AcDbLine
 10
2125.000047
 20
62.499989
 11
2125.000047
 21
124.999991
  0
LINE
  5
26F
100
AcDbEntity
  8
M79
  6
CONTINUOUS
370
13
 62
     7
100
AcDbLine
 10
2250.00005
 20
62.499989
 11
2250.00005
 21
124.999991
  0
LINE
  5
270
100
AcDbEntity
  8
M79
  6
CONTINUOUS
370
13
 62
     7
100
AcDbLine
 10
2375.000053
 20
62.499989
 11
2375.000053
 21
124.999991
  0
LINE
  5
271
100
AcDbEntity
  8
M79
  6
CONTINUOUS
370
13
 62
     7
100
AcDbLine
 10
2500.000056
 20
62.499989
 11
2500.000056
 21
124.999991
  0
LINE
  5
272
100
AcDbEntity
  8
M79
  6
CONTINUOUS
370
13
 62
     7
100
AcDbLine
 10
2625.000059
 20
62.499989
 11
2625.000059
 21
124.999991
  0
LINE
  5
273
100
AcDbEntity
  8
M79
  6
CONTINUOUS
370
13
 62
     7
100
AcDbLine
 10
2750.000061
 20
62.499989
 11
2750.000061
 21
124.999991
  0
LINE
  5
274
100
AcDbEntity
  8
M79
  6
CONTINUOUS
370
13
 62
     7
100
AcDbLine
 10
2875.000064
 20
62.499989
 11
2875.000064
 21
124.999991
  0
LINE
  5
275
100
AcDbEntity
  8
M79
  6
CONTINUOUS
370
13
 62
     7
100
AcDbLine
 10
3000.000067
 20
62.499989
 11
3000.000067
 21
124.999991
  0
LINE
  5
276
100
AcDbEntity
  8
M79
  6
CONTINUOUS
370
13
 62
     7
100
AcDbLine
 10
3125.00007
 20
62.499989
 11
3125.00007
 21
124.999991
  0
LINE
  5
277
100
AcDbEntity
  8
M79
  6
CONTINUOUS
370
13
 62
     7
100
AcDbLine
 10
2025.000045
 20
93.740084
 11
2025.000045
 21
124.999991
  0
LINE
  5
278
100
AcDbEntity
  8
M79
  6
CONTINUOUS
370
13
 62
     7
100
AcDbLine
 10
2050.000046
 20
93.73019
 11
2050.000046
 21
124.999991
  0
LINE
  5
279
100
AcDbEntity
  8
M79
  6
CONTINUOUS
370
13
 62
     7
100
AcDbLine
 10
2075.000046
 20
93.720283
 11
2075.000046
 21
124.999991
  0
LINE
  5
27A
100
AcDbEntity
  8
M79
  6
CONTINUOUS
370
13
 62
     7
100
AcDbLine
 10
2100.000047
 20
93.710389
 11
2100.000047
 21
124.999991
  0
LINE
  5
27B
100
AcDbEntity
  8
M79
  6
CONTINUOUS
370
13
 62
     7
100
AcDbLine
 10
2187.500049
 20
93.675735
 11
2187.500049
 21
124.999979
  0
LINE
  5
27C
100
AcDbEntity
  8
M79
  6
CONTINUOUS
370
13
 62
     7
100
AcDbLine
 10
2312.500052
 20
93.675723
 11
2312.500052
 21
124.999967
  0
LINE
  5
27D
100
AcDbEntity
  8
M79
  6
CONTINUOUS
370
13
 62
     7
100
AcDbLine
 10
2437.500054
 20
93.675723
 11
2437.500054
 21
124.999967
  0
LINE
  5
27E
100
AcDbEntity
  8
M79
  6
CONTINUOUS
370
13
 62
     7
100
AcDbLine
 10
2562.500057
 20
93.675723
 11
2562.500057
 21
124.999967
  0
LINE
  5
27F
100
AcDbEntity
  8
M79
  6
CONTINUOUS
370
13
 62
     7
100
AcDbLine
 10
2687.50006
 20
93.675723
 11
2687.50006
 21
124.999967
  0
LINE
  5
280
100
AcDbEntity
  8
M79
  6
CONTINUOUS
370
13
 62
     7
100
AcDbLine
 10
2812.500063
 20
93.675723
 11
2812.500063
 21
124.999967
  0
LINE
  5
281
100
AcDbEntity
  8
M79
  6
CONTINUOUS
370
13
 62
     7
100
AcDbLine
 10
2937.500066
 20
93.675723
 11
2937.500066
 21
124.999967
  0
LINE
  5
282
100
AcDbEntity
  8
M79
  6
CONTINUOUS
370
13
 62
     7
100
AcDbLine
 10
3062.500068
 20
93.675723
 11
3062.500068
 21
124.999967
  0
LINE
  5
283
100
AcDbEntity
  8
M79
  6
CONTINUOUS
370
13
 62
     7
100
AcDbLine
 10
3187.500071
 20
93.675723
 11
3187.500071
 21
124.999967
  0
LINE
  5
284
100
AcDbEntity
  8
M79
  6
CONTINUOUS
370
13
 62
     7
100
AcDbLine
 10
2000.000045
 20
62.500001
 11
3250.000073
 21
62.004949
  0
TEXT
  5
285
100
AcDbEntity
  8
M79
 62
     7
100
AcDbText
 10
231.250005
 20
3375.000075
 40
50.0
  1
Ａ
 41
1.25
  7
STANDARD
100
AcDbText
  0
TEXT
  5
286
100
AcDbEntity
  8
M79
 62
     7
100
AcDbText
 10
231.250005
 20
2750.000061
 40
50.0
  1
Ｂ
 41
1.25
  7
STANDARD
100
AcDbText
  0
TEXT
  5
287
100
AcDbEntity
  8
M79
 62
     7
100
AcDbText
 10
231.250005
 20
2125.000047
 40
50.0
  1
Ｃ
 41
1.25
  7
STANDARD
100
AcDbText
  0
TEXT
  5
288
100
AcDbEntity
  8
M79
 62
     7
100
AcDbText
 10
231.250005
 20
1500.000034
 40
50.0
  1
Ｄ
 41
1.25
  7
STANDARD
100
AcDbText
  0
TEXT
  5
289
100
AcDbEntity
  8
M79
 62
     7
100
AcDbText
 10
231.250005
 20
875.00002
 40
50.0
  1
Ｅ
 41
1.25
  7
STANDARD
100
AcDbText
  0
TEXT
  5
28A
100
AcDbEntity
  8
M79
 62
     7
100
AcDbText
 10
231.250005
 20
375.000008
 40
50.0
  1
Ｆ
 41
1.25
  7
STANDARD
100
AcDbText
  0
TEXT
  5
28B
100
AcDbEntity
  8
M79
 62
     7
100
AcDbText
 10
5143.750115
 20
3375.000075
 40
50.0
  1
Ａ
 41
1.25
  7
STANDARD
100
AcDbText
  0
TEXT
  5
28C
100
AcDbEntity
  8
M79
 62
     7
100
AcDbText
 10
5143.750115
 20
2750.000061
 40
50.0
  1
Ｂ
 41
1.25
  7
STANDARD
100
AcDbText
  0
TEXT
  5
28D
100
AcDbEntity
  8
M79
 62
     7
100
AcDbText
 10
5143.750115
 20
2125.000047
 40
50.0
  1
Ｃ
 41
1.25
  7
STANDARD
100
AcDbText
  0
TEXT
  5
28E
100
AcDbEntity
  8
M79
 62
     7
100
AcDbText
 10
5143.750115
 20
1500.000034
 40
50.0
  1
Ｄ
 41
1.25
  7
STANDARD
100
AcDbText
  0
TEXT
  5
28F
100
AcDbEntity
  8
M79
 62
     7
100
AcDbText
 10
5143.750115
 20
875.00002
 40
50.0
  1
Ｅ
 41
1.25
  7
STANDARD
100
AcDbText
  0
TEXT
  5
290
100
AcDbEntity
  8
M79
 62
     7
100
AcDbText
 10
493.750011
 20
50.000001
 40
50.0
  1
１
 41
1.25
  7
STANDARD
100
AcDbText
  0
TEXT
  5
291
100
AcDbEntity
  8
M79
 62
     7
100
AcDbText
 10
1018.750023
 20
50.000001
 40
50.0
  1
２
 41
1.25
  7
STANDARD
100
AcDbText
  0
TEXT
  5
292
100
AcDbEntity
  8
M79
 62
     7
100
AcDbText
 10
1643.750037
 20
50.000001
 40
50.0
  1
３
 41
1.25
  7
STANDARD
100
AcDbText
  0
TEXT
  5
293
100
AcDbEntity
  8
M79
 62
     7
100
AcDbText
 10
3518.750079
 20
50.000001
 40
50.0
  1
６
 41
1.25
  7
STANDARD
100
AcDbText
  0
TEXT
  5
294
100
AcDbEntity
  8
M79
 62
     7
100
AcDbText
 10
4143.750093
 20
50.000001
 40
50.0
  1
７
 41
1.25
  7
STANDARD
100
AcDbText
  0
TEXT
  5
295
100
AcDbEntity
  8
M79
 62
     7
100
AcDbText
 10
2280.257085
 20
9.057759
 40
50.0
  1
４
 41
1.25
  7
STANDARD
100
AcDbText
  0
TEXT
  5
296
100
AcDbEntity
  8
M79
 62
     7
100
AcDbText
 10
2906.096905
 20
7.763793
 40
50.0
  1
５
 41
1.25
  7
STANDARD
100
AcDbText
  0
TEXT
  5
297
100
AcDbEntity
  8
M79
 62
     7
100
AcDbText
 10
493.750011
 20
3612.500081
 40
50.0
  1
１
 41
1.25
  7
STANDARD
100
AcDbText
  0
TEXT
  5
298
100
AcDbEntity
  8
M79
 62
     7
100
AcDbText
 10
1018.750023
 20
3612.500081
 40
50.0
  1
２
 41
1.25
  7
STANDARD
100
AcDbText
  0
TEXT
  5
299
100
AcDbEntity
  8
M79
 62
     7
100
AcDbText
 10
1643.750037
 20
3612.500081
 40
50.0
  1
３
 41
1.25
  7
STANDARD
100
AcDbText
  0
TEXT
  5
29A
100
AcDbEntity
  8
M79
 62
     7
100
AcDbText
 10
3518.750079
 20
3612.500081
 40
50.0
  1
６
 41
1.25
  7
STANDARD
100
AcDbText
  0
TEXT
  5
29B
100
AcDbEntity
  8
M79
 62
     7
100
AcDbText
 10
4143.750093
 20
3612.500081
 40
50.0
  1
７
 41
1.25
  7
STANDARD
100
AcDbText
  0
TEXT
  5
29C
100
AcDbEntity
  8
M79
 62
     7
100
AcDbText
 10
4768.750107
 20
3612.500081
 40
50.0
  1
８
 41
1.25
  7
STANDARD
100
AcDbText
  0
TEXT
  5
29D
100
AcDbEntity
  8
M79
 62
     7
100
AcDbText
 10
2280.257085
 20
3611.557088
 40
50.0
  1
４
 41
1.25
  7
STANDARD
100
AcDbText
  0
TEXT
  5
29E
100
AcDbEntity
  8
M79
 62
     7
100
AcDbText
 10
2906.096905
 20
3612.762532
 40
50.0
  1
５
 41
1.25
  7
STANDARD
100
AcDbText
  0
TEXT
  5
29F
100
AcDbEntity
  8
M79
 62
     7
100
AcDbText
 10
1979.667962
 20
27.727831
 40
25.0
  1
０
 41
1.666667
  7
STANDARD
100
AcDbText
  0
TEXT
  5
2A0
100
AcDbEntity
  8
M79
 62
     7
100
AcDbText
 10
3209.064811
 20
26.61872
 40
25.0
  1
１００
 41
0.916667
  7
STANDARD
100
AcDbText
  0
LINE
  5
2A1
100
AcDbEntity
  8
M79
  6
CONTINUOUS
370
25
 62
     7
100
AcDbLine
 10
908.749982
 20
3587.50008
 11
908.749982
 21
3425.000077
  0
LINE
  5
2A2
100
AcDbEntity
  8
M79
  6
CONTINUOUS
370
25
 62
     7
100
AcDbLine
 10
312.500007
 20
125.000003
 11
5125.000115
 21
125.000003
  0
TEXT
  5
2A3
100
AcDbEntity
  8
M79
 62
     7
100
AcDbText
 10
3015.578147
 20
343.377359
 40
31.25
  1
ＤＷＮ．
 41
0.5
  7
STANDARD
100
AcDbText
  0
TEXT
  5
2A4
100
AcDbEntity
  8
M79
 62
     7
100
AcDbText
 10
3012.105246
 20
245.534139
 40
31.25
  1
ＣＨＫＤ．
 41
0.5
  7
STANDARD
100
AcDbText
  0
TEXT
  5
2A5
100
AcDbEntity
  8
M79
 62
     7
100
AcDbText
 10
3010.8422
 20
140.467826
 40
31.25
  1
ＡＰＰＤ．
 41
0.5
  7
STANDARD
100
AcDbText
  0
TEXT
  5
2A6
100
AcDbEntity
  8
M79
 62
     7
100
AcDbText
 10
4187.081367
 20
425.016413
 40
37.5
  1
ＴＩＴＬＥ
 41
0.555556
  7
STANDARD
100
AcDbText
  0
TEXT
  5
2A7
100
AcDbEntity
  8
M79
 62
     7
100
AcDbText
 10
4277.052148
 20
276.912505
 40
37.5
  1
ＴＯＣＨＩＧＩ　ＤＷＧ．　Ｎｏ．
 41
0.555556
  7
STANDARD
100
AcDbText
  0
TEXT
  5
2A8
100
AcDbEntity
  8
M79
 62
     7
100
AcDbText
 10
3998.706271
 20
425.016413
 40
37.5
  1
ＳＣＡＬＥ
 41
0.555556
  7
STANDARD
100
AcDbText
  0
TEXT
  5
2A9
100
AcDbEntity
  8
M79
 62
     7
100
AcDbText
 10
5143.750115
 20
375.000008
 40
50.0
  1
Ｆ
 41
1.25
  7
STANDARD
100
AcDbText
  0
LINE
  5
2AA
100
AcDbEntity
  8
M79
  6
CONTINUOUS
370
25
 62
     7
100
AcDbLine
 10
3000.000067
 20
468.75001
 11
5125.000115
 21
468.75001
  0
LINE
  5
2AB
100
AcDbEntity
  8
M79
  6
CONTINUOUS
370
13
 62
     7
100
AcDbLine
 10
3725.000083
 20
325.000007
 11
5125.000115
 21
325.000007
  0
LINE
  5
2AC
100
AcDbEntity
  8
M79
  6
CONTINUOUS
370
13
 62
     7
100
AcDbLine
 10
4175.000093
 20
468.75001
 11
4175.000093
 21
325.000007
  0
LINE
  5
2AD
100
AcDbEntity
  8
M79
  6
CONTINUOUS
370
13
 62
     7
100
AcDbLine
 10
3950.000088
 20
468.75001
 11
3950.000088
 21
325.000007
  0
LINE
  5
2AE
100
AcDbEntity
  8
M79
  6
CONTINUOUS
370
13
 62
     7
100
AcDbLine
 10
4937.50011
 20
325.000007
 11
4937.50011
 21
125.000003
  0
LINE
  5
2AF
100
AcDbEntity
  8
M79
  6
CONTINUOUS
370
13
 62
     7
100
AcDbLine
 10
3725.000083
 20
468.75001
 11
3725.000083
 21
125.000003
  0
LINE
  5
2B0
100
AcDbEntity
  8
M79
  6
CONTINUOUS
370
13
 62
     7
100
AcDbLine
 10
3000.000067
 20
331.250007
 11
3725.000083
 21
331.250007
  0
LINE
  5
2B1
100
AcDbEntity
  8
M79
  6
CONTINUOUS
370
13
 62
     7
100
AcDbLine
 10
3100.000069
 20
400.000009
 11
3100.000069
 21
125.000003
  0
LINE
  5
2B2
100
AcDbEntity
  8
M79
  6
CONTINUOUS
370
13
 62
     7
100
AcDbLine
 10
3000.000067
 20
400.000009
 11
3725.000083
 21
400.000009
  0
LINE
  5
2B3
100
AcDbEntity
  8
M79
  6
CONTINUOUS
370
25
 62
     7
100
AcDbLine
 10
3000.000067
 20
468.75001
 11
3000.000067
 21
125.000003
  0
LINE
  5
2B4
100
AcDbEntity
  8
M79
  6
CONTINUOUS
370
13
 62
     7
100
AcDbLine
 10
3412.500076
 20
468.75001
 11
3412.500076
 21
125.000003
  0
LINE
  5
2B5
100
AcDbEntity
  8
M79
  6
CONTINUOUS
370
13
 62
     7
100
AcDbLine
 10
3100.000069
 20
262.500006
 11
3725.000083
 21
262.500006
  0
LINE
  5
2B6
100
AcDbEntity
  8
M79
  6
CONTINUOUS
370
13
 62
     7
100
AcDbLine
 10
3000.000067
 20
193.750004
 11
3725.000083
 21
193.750004
  0
LINE
  5
2B7
100
AcDbEntity
  8
M79
  6
CONTINUOUS
370
13
 62
     7
100
AcDbLine
 10
4266.250095
 20
325.000007
 11
4266.250095
 21
125.000003
  0
TEXT
  5
2B8
100
AcDbEntity
  8
M79
 62
     7
100
AcDbText
 10
4980.383488
 20
287.68254
 40
35.0
  1
ＲＥＧＤ．
 41
0.535714
  7
STANDARD
100
AcDbText
  0
TEXT
  5
2B9
100
AcDbEntity
  8
M79
 62
     7
100
AcDbText
 10
3514.583412
 20
412.500009
 40
37.5
  1
ＤＡＴＥ
 41
0.555556
  7
STANDARD
100
AcDbText
  0
TEXT
  5
2BA
100
AcDbEntity
  8
M79
 62
     7
100
AcDbText
 10
3102.083403
 20
412.500009
 40
37.5
  1
ＳＩＧＮＡＴＵＲＥ
 41
0.555556
  7
STANDARD
100
AcDbText
  0
TEXT
  5
2BB
100
AcDbEntity
  8
M79
 62
     7
100
AcDbText
 10
3747.70211
 20
429.343424
 40
31.25
  1
ＰＲＯＪＥＣＴＩＯＮ
 41
0.5
  7
STANDARD
100
AcDbText
  0
LINE
  5
2BC
100
AcDbEntity
  8
M79
  6
CONTINUOUS
370
25
 62
     7
100
AcDbLine
 10
5012.3874
 20
410.000009
 11
5016.250112
 21
410.000009
  0
ARC
  5
2BD
100
AcDbEntity
  8
M79
  6
CONTINUOUS
370
25
 62
     7
100
AcDbCircle
 10
5012.3874
 20
425.000009
 40
2.5
100
AcDbArc
 50
90.0
 51
138.189685
  0
ARC
  5
2BE
100
AcDbEntity
  8
M79
  6
CONTINUOUS
370
25
 62
     7
100
AcDbCircle
 10
5019.375112
 20
418.750009
 40
11.875
100
AcDbArc
 50
138.189685
 51
221.810315
  0
ELLIPSE
  5
2BF
100
AcDbEntity
  8
M79
  6
CONTINUOUS
370
25
 62
     7
100
AcDbEllipse
 10
5050.000113
 20
418.750009
 11
62.500001
 21
0.0
210
0.0
220
0.0
230
1.0
 40
0.6
 41
0.0
 42
6.283185307179586
  0
LINE
  5
2C0
100
AcDbEntity
  8
M79
  6
CONTINUOUS
370
25
 62
     7
100
AcDbLine
 10
5026.250112
 20
440.00001
 11
5026.250112
 21
436.18035
  0
LINE
  5
2C1
100
AcDbEntity
  8
M79
  6
CONTINUOUS
370
25
 62
     7
100
AcDbLine
 10
5085.000114
 20
427.50001
 11
5085.000114
 21
410.000009
  0
LINE
  5
2C2
100
AcDbEntity
  8
M79
  6
CONTINUOUS
370
25
 62
     7
100
AcDbLine
 10
5072.500113
 20
427.50001
 11
5075.000113
 21
427.50001
  0
LINE
  5
2C3
100
AcDbEntity
  8
M79
  6
CONTINUOUS
370
25
 62
     7
100
AcDbLine
 10
5090.112826
 20
410.000009
 11
5085.000114
 21
410.000009
  0
LINE
  5
2C4
100
AcDbEntity
  8
M79
  6
CONTINUOUS
370
25
 62
     7
100
AcDbLine
 10
5085.000114
 20
427.50001
 11
5090.112826
 21
427.50001
  0
LINE
  5
2C5
100
AcDbEntity
  8
M79
  6
CONTINUOUS
370
25
 62
     7
100
AcDbLine
 10
5075.000113
 20
410.000009
 11
5072.500113
 21
410.000009
  0
LINE
  5
2C6
100
AcDbEntity
  8
M79
  6
CONTINUOUS
370
25
 62
     7
100
AcDbLine
 10
5039.862644
 20
397.500009
 11
5043.228029
 21
406.250009
  0
LINE
  5
2C7
100
AcDbEntity
  8
M79
  6
CONTINUOUS
370
25
 62
     7
100
AcDbLine
 10
5060.137581
 20
397.500009
 11
5056.772197
 21
406.250009
  0
LINE
  5
2C8
100
AcDbEntity
  8
M79
  6
CONTINUOUS
370
25
 62
     7
100
AcDbLine
 10
5046.593414
 20
415.000009
 11
5050.000113
 21
426.357427
  0
LINE
  5
2C9
100
AcDbEntity
  8
M79
  6
CONTINUOUS
370
25
 62
     7
100
AcDbLine
 10
5046.593414
 20
415.000009
 11
5053.406812
 21
415.000009
  0
LINE
  5
2CA
100
AcDbEntity
  8
M79
  6
CONTINUOUS
370
25
 62
     7
100
AcDbLine
 10
5053.406812
 20
415.000009
 11
5050.000113
 21
426.357427
  0
LINE
  5
2CB
100
AcDbEntity
  8
M79
  6
CONTINUOUS
370
25
 62
     7
100
AcDbLine
 10
5043.228029
 20
406.250009
 11
5056.772197
 21
406.250009
  0
LINE
  5
2CC
100
AcDbEntity
  8
M79
  6
CONTINUOUS
370
25
 62
     7
100
AcDbLine
 10
5075.000113
 20
427.50001
 11
5075.000113
 21
410.000009
  0
LINE
  5
2CD
100
AcDbEntity
  8
M79
  6
CONTINUOUS
370
25
 62
     7
100
AcDbLine
 10
5012.3874
 20
440.00001
 11
5016.250112
 21
440.00001
  0
LINE
  5
2CE
100
AcDbEntity
  8
M79
  6
CONTINUOUS
370
25
 62
     7
100
AcDbLine
 10
5026.250112
 20
440.00001
 11
5031.250112
 21
440.00001
  0
LINE
  5
2CF
100
AcDbEntity
  8
M79
  6
CONTINUOUS
370
25
 62
     7
100
AcDbLine
 10
5031.250112
 20
440.00001
 11
5031.250112
 21
423.750009
  0
LINE
  5
2D0
100
AcDbEntity
  8
M79
  6
CONTINUOUS
370
25
 62
     7
100
AcDbLine
 10
5012.3874
 20
397.500009
 11
5016.250112
 21
397.500009
  0
LINE
  5
2D1
100
AcDbEntity
  8
M79
  6
CONTINUOUS
370
25
 62
     7
100
AcDbLine
 10
5045.625113
 20
440.00001
 11
5054.375113
 21
440.00001
  0
LINE
  5
2D2
100
AcDbEntity
  8
M79
  6
CONTINUOUS
370
25
 62
     7
100
AcDbLine
 10
5028.969963
 20
397.500009
 11
5039.862644
 21
397.500009
  0
LINE
  5
2D3
100
AcDbEntity
  8
M79
  6
CONTINUOUS
370
25
 62
     7
100
AcDbLine
 10
5060.137581
 20
397.500009
 11
5071.030263
 21
397.500009
  0
LINE
  5
2D4
100
AcDbEntity
  8
M79
  6
CONTINUOUS
370
25
 62
     7
100
AcDbLine
 10
5087.612826
 20
397.500009
 11
5072.500113
 21
397.500009
  0
LINE
  5
2D5
100
AcDbEntity
  8
M79
  6
CONTINUOUS
370
25
 62
     7
100
AcDbLine
 10
5072.500113
 20
440.00001
 11
5087.612826
 21
440.00001
  0
LINE
  5
2D6
100
AcDbEntity
  8
M79
  6
CONTINUOUS
370
25
 62
     7
100
AcDbLine
 10
5072.500113
 20
440.00001
 11
5072.500113
 21
427.50001
  0
LINE
  5
2D7
100
AcDbEntity
  8
M79
  6
CONTINUOUS
370
25
 62
     7
100
AcDbLine
 10
5072.500113
 20
410.000009
 11
5072.500113
 21
397.500009
  0
LINE
  5
2D8
100
AcDbEntity
  8
M79
  6
CONTINUOUS
370
25
 62
     7
100
AcDbLine
 10
5045.625113
 20
440.00001
 11
5028.969963
 21
397.500009
  0
LINE
  5
2D9
100
AcDbEntity
  8
M79
  6
CONTINUOUS
370
25
 62
     7
100
AcDbLine
 10
5054.375113
 20
440.00001
 11
5071.030263
 21
397.500009
  0
LINE
  5
2DA
100
AcDbEntity
  8
M79
  6
CONTINUOUS
370
25
 62
     7
100
AcDbLine
 10
5031.250112
 20
423.750009
 11
5020.033455
 21
423.750009
  0
LINE
  5
2DB
100
AcDbEntity
  8
M79
  6
CONTINUOUS
370
25
 62
     7
100
AcDbLine
 10
5031.197938
 20
413.750009
 11
5020.033455
 21
413.750009
  0
LINE
  5
2DC
100
AcDbEntity
  8
M79
  6
CONTINUOUS
370
25
 62
     7
100
AcDbLine
 10
5022.756994
 20
385.000009
 11
5077.243232
 21
385.000009
  0
LINE
  5
2DD
100
AcDbEntity
  8
M79
  6
CONTINUOUS
370
25
 62
     7
100
AcDbLine
 10
5012.500112
 20
388.750009
 11
5087.500114
 21
388.750009
  0
LINE
  5
2DE
100
AcDbEntity
  8
M79
  6
CONTINUOUS
370
25
 62
     7
100
AcDbLine
 10
5005.366184
 20
392.500009
 11
5094.634042
 21
392.500009
  0
LINE
  5
2DF
100
AcDbEntity
  8
M79
  6
CONTINUOUS
370
25
 62
     7
100
AcDbLine
 10
5000.000112
 20
396.250009
 11
5100.000114
 21
396.250009
  0
LINE
  5
2E0
100
AcDbEntity
  8
M79
  6
CONTINUOUS
370
25
 62
     7
100
AcDbLine
 10
4995.873524
 20
400.000009
 11
5004.095837
 21
400.000009
  0
LINE
  5
2E1
100
AcDbEntity
  8
M79
  6
CONTINUOUS
370
25
 62
     7
100
AcDbLine
 10
5024.541674
 20
400.000009
 11
5029.949678
 21
400.000009
  0
LINE
  5
2E2
100
AcDbEntity
  8
M79
  6
CONTINUOUS
370
25
 62
     7
100
AcDbLine
 10
5040.824183
 20
400.000009
 11
5059.176043
 21
400.000009
  0
LINE
  5
2E3
100
AcDbEntity
  8
M79
  6
CONTINUOUS
370
25
 62
     7
100
AcDbLine
 10
5070.050548
 20
400.000009
 11
5072.500113
 21
400.000009
  0
LINE
  5
2E4
100
AcDbEntity
  8
M79
  6
CONTINUOUS
370
25
 62
     7
100
AcDbLine
 10
5095.904388
 20
400.000009
 11
5104.126702
 21
400.000009
  0
LINE
  5
2E5
100
AcDbEntity
  8
M79
  6
CONTINUOUS
370
25
 62
     7
100
AcDbLine
 10
4992.717915
 20
403.750009
 11
5000.162079
 21
403.750009
  0
LINE
  5
2E6
100
AcDbEntity
  8
M79
  6
CONTINUOUS
370
25
 62
     7
100
AcDbLine
 10
5028.433605
 20
403.750009
 11
5031.41925
 21
403.750009
  0
LINE
  5
2E7
100
AcDbEntity
  8
M79
  6
CONTINUOUS
370
25
 62
     7
100
AcDbLine
 10
5042.266491
 20
403.750009
 11
5057.733735
 21
403.750009
  0
LINE
  5
2E8
100
AcDbEntity
  8
M79
  6
CONTINUOUS
370
25
 62
     7
100
AcDbLine
 10
5068.580976
 20
403.750009
 11
5072.500113
 21
403.750009
  0
LINE
  5
2E9
100
AcDbEntity
  8
M79
  6
CONTINUOUS
370
25
 62
     7
100
AcDbLine
 10
5099.838147
 20
403.750009
 11
5107.28231
 21
403.750009
  0
LINE
  5
2EA
100
AcDbEntity
  8
M79
  6
CONTINUOUS
370
25
 62
     7
100
AcDbLine
 10
4990.378911
 20
407.500009
 11
4997.751557
 21
407.500009
  0
LINE
  5
2EB
100
AcDbEntity
  8
M79
  6
CONTINUOUS
370
25
 62
     7
100
AcDbLine
 10
5030.392248
 20
407.500009
 11
5032.888822
 21
407.500009
  0
LINE
  5
2EC
100
AcDbEntity
  8
M79
  6
CONTINUOUS
370
25
 62
     7
100
AcDbLine
 10
5067.111404
 20
407.500009
 11
5072.500113
 21
407.500009
  0
LINE
  5
2ED
100
AcDbEntity
  8
M79
  6
CONTINUOUS
370
25
 62
     7
100
AcDbLine
 10
5102.248669
 20
407.500009
 11
5109.621314
 21
407.500009
  0
LINE
  5
2EE
100
AcDbEntity
  8
M79
  6
CONTINUOUS
370
25
 62
     7
100
AcDbLine
 10
4988.762868
 20
411.250009
 11
4996.182643
 21
411.250009
  0
LINE
  5
2EF
100
AcDbEntity
  8
M79
  6
CONTINUOUS
370
25
 62
     7
100
AcDbLine
 10
5010.168287
 20
411.250009
 11
5018.469225
 21
411.250009
  0
LINE
  5
2F0
100
AcDbEntity
  8
M79
  6
CONTINUOUS
370
25
 62
     7
100
AcDbLine
 10
5031.197938
 20
411.250009
 11
5034.358394
 21
411.250009
  0
LINE
  5
2F1
100
AcDbEntity
  8
M79
  6
CONTINUOUS
370
25
 62
     7
100
AcDbLine
 10
5065.641832
 20
411.250009
 11
5075.000113
 21
411.250009
  0
ARC
  5
2F2
100
AcDbEntity
  8
M79
  6
CONTINUOUS
370
25
 62
     7
100
AcDbCircle
 10
5012.3874
 20
412.500009
 40
2.5
100
AcDbArc
 50
221.810315
 51
270.0
  0
LINE
  5
2F3
100
AcDbEntity
  8
M79
  6
CONTINUOUS
370
25
 62
     7
100
AcDbLine
 10
5012.3874
 20
427.50001
 11
5016.250112
 21
427.50001
  0
ARC
  5
2F4
100
AcDbEntity
  8
M79
  6
CONTINUOUS
370
25
 62
     7
100
AcDbCircle
 10
5083.125114
 20
418.750009
 40
11.875
100
AcDbArc
 50
318.189685
 51
401.810315
  0
LINE
  5
2F5
100
AcDbEntity
  8
M79
  6
CONTINUOUS
370
25
 62
     7
100
AcDbLine
 10
5085.000114
 20
425.000009
 11
5093.222298
 21
425.000009
  0
ARC
  5
2F6
100
AcDbEntity
  8
M79
  6
CONTINUOUS
370
25
 62
     7
100
AcDbCircle
 10
5090.112826
 20
425.000009
 40
2.5
100
AcDbArc
 50
41.810315
 51
90.0
  0
ARC
  5
2F7
100
AcDbEntity
  8
M79
  6
CONTINUOUS
370
25
 62
     7
100
AcDbCircle
 10
5090.112826
 20
412.500009
 40
2.5
100
AcDbArc
 50
270.0
 51
318.189685
  0
ARC
  5
2F8
100
AcDbEntity
  8
M79
  6
CONTINUOUS
370
25
 62
     7
100
AcDbCircle
 10
5016.250112
 20
425.000009
 40
15.0
100
AcDbArc
 50
48.189685
 51
90.0
  0
ARC
  5
2F9
100
AcDbEntity
  8
M79
  6
CONTINUOUS
370
25
 62
     7
100
AcDbCircle
 10
5012.3874
 20
425.000009
 40
15.0
100
AcDbArc
 50
90.0
 51
138.189685
  0
ARC
  5
2FA
100
AcDbEntity
  8
M79
  6
CONTINUOUS
370
25
 62
     7
100
AcDbCircle
 10
5019.375112
 20
418.750009
 40
24.375001
100
AcDbArc
 50
138.189685
 51
221.810315
  0
ARC
  5
2FB
100
AcDbEntity
  8
M79
  6
CONTINUOUS
370
25
 62
     7
100
AcDbCircle
 10
5012.3874
 20
412.500009
 40
15.0
100
AcDbArc
 50
221.810315
 51
270.0
  0
ARC
  5
2FC
100
AcDbEntity
  8
M79
  6
CONTINUOUS
370
25
 62
     7
100
AcDbCircle
 10
5016.250112
 20
412.500009
 40
15.0
100
AcDbArc
 50
270.0
 51
364.780192
  0
ARC
  5
2FD
100
AcDbEntity
  8
M79
  6
CONTINUOUS
370
25
 62
     7
100
AcDbCircle
 10
5080.625114
 20
418.750009
 40
24.375001
100
AcDbArc
 50
318.189685
 51
401.810315
  0
ARC
  5
2FE
100
AcDbEntity
  8
M79
  6
CONTINUOUS
370
25
 62
     7
100
AcDbCircle
 10
5087.612826
 20
412.500009
 40
15.0
100
AcDbArc
 50
270.0
 51
318.189685
  0
ARC
  5
2FF
100
AcDbEntity
  8
M79
  6
CONTINUOUS
370
25
 62
     7
100
AcDbCircle
 10
5087.612826
 20
425.000009
 40
15.0
100
AcDbArc
 50
41.810315
 51
90.0
  0
ARC
  5
300
100
AcDbEntity
  8
M79
  6
CONTINUOUS
370
25
 62
     7
100
AcDbCircle
 10
5016.250112
 20
425.000009
 40
2.5
100
AcDbArc
 50
41.810315
 51
90.0
  0
ARC
  5
301
100
AcDbEntity
  8
M79
  6
CONTINUOUS
370
25
 62
     7
100
AcDbCircle
 10
5009.2624
 20
418.750009
 40
11.875
100
AcDbArc
 50
318.189685
 51
335.098938
  0
ARC
  5
302
100
AcDbEntity
  8
M79
  6
CONTINUOUS
370
25
 62
     7
100
AcDbCircle
 10
5016.250112
 20
412.500009
 40
2.5
100
AcDbArc
 50
270.0
 51
318.189685
  0
ARC
  5
303
100
AcDbEntity
  8
M79
  6
CONTINUOUS
370
25
 62
     7
100
AcDbCircle
 10
5009.2624
 20
418.750009
 40
11.875
100
AcDbArc
 50
24.901062
 51
41.810315
  0
LINE
  5
304
100
AcDbEntity
  8
M79
  6
CONTINUOUS
370
25
 62
     7
100
AcDbLine
 10
5103.817583
 20
411.250009
 11
5111.237358
 21
411.250009
  0
LINE
  5
305
100
AcDbEntity
  8
M79
  6
CONTINUOUS
370
25
 62
     7
100
AcDbLine
 10
4987.813397
 20
415.000009
 11
4995.290301
 21
415.000009
  0
LINE
  5
306
100
AcDbEntity
  8
M79
  6
CONTINUOUS
370
25
 62
     7
100
AcDbLine
 10
5008.107764
 20
415.000009
 11
5035.827966
 21
415.000009
  0
LINE
  5
307
100
AcDbEntity
  8
M79
  6
CONTINUOUS
370
25
 62
     7
100
AcDbLine
 10
5064.17226
 20
415.000009
 11
5075.000113
 21
415.000009
  0
LINE
  5
308
100
AcDbEntity
  8
M79
  6
CONTINUOUS
370
25
 62
     7
100
AcDbLine
 10
5104.709925
 20
415.000009
 11
5112.186829
 21
415.000009
  0
LINE
  5
309
100
AcDbEntity
  8
M79
  6
CONTINUOUS
370
25
 62
     7
100
AcDbLine
 10
4987.500111
 20
418.750009
 11
4995.000112
 21
418.750009
  0
LINE
  5
30A
100
AcDbEntity
  8
M79
  6
CONTINUOUS
370
25
 62
     7
100
AcDbLine
 10
5007.500112
 20
418.750009
 11
5037.297538
 21
418.750009
  0
LINE
  5
30B
100
AcDbEntity
  8
M79
  6
CONTINUOUS
370
25
 62
     7
100
AcDbLine
 10
5062.702688
 20
418.750009
 11
5075.000113
 21
418.750009
  0
LINE
  5
30C
100
AcDbEntity
  8
M79
  6
CONTINUOUS
370
25
 62
     7
100
AcDbLine
 10
5105.000114
 20
418.750009
 11
5112.500114
 21
418.750009
  0
LINE
  5
30D
100
AcDbEntity
  8
M79
  6
CONTINUOUS
370
25
 62
     7
100
AcDbLine
 10
4987.813397
 20
422.500009
 11
4995.290301
 21
422.500009
  0
LINE
  5
30E
100
AcDbEntity
  8
M79
  6
CONTINUOUS
370
25
 62
     7
100
AcDbLine
 10
5008.107764
 20
422.500009
 11
5038.76711
 21
422.500009
  0
LINE
  5
30F
100
AcDbEntity
  8
M79
  6
CONTINUOUS
370
25
 62
     7
100
AcDbLine
 10
5061.233116
 20
422.500009
 11
5075.000113
 21
422.500009
  0
LINE
  5
310
100
AcDbEntity
  8
M79
  6
CONTINUOUS
370
25
 62
     7
100
AcDbLine
 10
5104.709925
 20
422.500009
 11
5112.186829
 21
422.500009
  0
LINE
  5
311
100
AcDbEntity
  8
M79
  6
CONTINUOUS
370
25
 62
     7
100
AcDbLine
 10
4988.762868
 20
426.25001
 11
4996.182643
 21
426.25001
  0
LINE
  5
312
100
AcDbEntity
  8
M79
  6
CONTINUOUS
370
25
 62
     7
100
AcDbLine
 10
5010.168287
 20
426.25001
 11
5018.469225
 21
426.25001
  0
LINE
  5
313
100
AcDbEntity
  8
M79
  6
CONTINUOUS
370
25
 62
     7
100
AcDbLine
 10
5031.250112
 20
426.25001
 11
5040.236682
 21
426.25001
  0
LINE
  5
314
100
AcDbEntity
  8
M79
  6
CONTINUOUS
370
25
 62
     7
100
AcDbLine
 10
5059.763544
 20
426.25001
 11
5075.000113
 21
426.25001
  0
LINE
  5
315
100
AcDbEntity
  8
M79
  6
CONTINUOUS
370
25
 62
     7
100
AcDbLine
 10
5103.817583
 20
426.25001
 11
5111.237358
 21
426.25001
  0
LINE
  5
316
100
AcDbEntity
  8
M79
  6
CONTINUOUS
370
25
 62
     7
100
AcDbLine
 10
4990.378911
 20
430.00001
 11
4997.751557
 21
430.00001
  0
LINE
  5
317
100
AcDbEntity
  8
M79
  6
CONTINUOUS
370
25
 62
     7
100
AcDbLine
 10
5031.250112
 20
430.00001
 11
5041.706254
 21
430.00001
  0
LINE
  5
318
100
AcDbEntity
  8
M79
  6
CONTINUOUS
370
25
 62
     7
100
AcDbLine
 10
5058.293972
 20
430.00001
 11
5072.500113
 21
430.00001
  0
LINE
  5
319
100
AcDbEntity
  8
M79
  6
CONTINUOUS
370
25
 62
     7
100
AcDbLine
 10
5102.248669
 20
430.00001
 11
5109.621314
 21
430.00001
  0
LINE
  5
31A
100
AcDbEntity
  8
M79
  6
CONTINUOUS
370
25
 62
     7
100
AcDbLine
 10
4992.717915
 20
433.75001
 11
5000.162079
 21
433.75001
  0
LINE
  5
31B
100
AcDbEntity
  8
M79
  6
CONTINUOUS
370
25
 62
     7
100
AcDbLine
 10
5031.250112
 20
433.75001
 11
5043.175826
 21
433.75001
  0
LINE
  5
31C
100
AcDbEntity
  8
M79
  6
CONTINUOUS
370
25
 62
     7
100
AcDbLine
 10
5056.8244
 20
433.75001
 11
5072.500113
 21
433.75001
  0
LINE
  5
31D
100
AcDbEntity
  8
M79
  6
CONTINUOUS
370
25
 62
     7
100
AcDbLine
 10
5099.838147
 20
433.75001
 11
5107.28231
 21
433.75001
  0
LINE
  5
31E
100
AcDbEntity
  8
M79
  6
CONTINUOUS
370
25
 62
     7
100
AcDbLine
 10
4995.873524
 20
437.50001
 11
5004.095837
 21
437.50001
  0
LINE
  5
31F
100
AcDbEntity
  8
M79
  6
CONTINUOUS
370
25
 62
     7
100
AcDbLine
 10
5024.541674
 20
437.50001
 11
5026.250112
 21
437.50001
  0
LINE
  5
320
100
AcDbEntity
  8
M79
  6
CONTINUOUS
370
25
 62
     7
100
AcDbLine
 10
5031.250112
 20
437.50001
 11
5044.645398
 21
437.50001
  0
LINE
  5
321
100
AcDbEntity
  8
M79
  6
CONTINUOUS
370
25
 62
     7
100
AcDbLine
 10
5055.354828
 20
437.50001
 11
5072.500113
 21
437.50001
  0
LINE
  5
322
100
AcDbEntity
  8
M79
  6
CONTINUOUS
370
25
 62
     7
100
AcDbLine
 10
5095.904388
 20
437.50001
 11
5104.126702
 21
437.50001
  0
LINE
  5
323
100
AcDbEntity
  8
M79
  6
CONTINUOUS
370
25
 62
     7
100
AcDbLine
 10
5000.000112
 20
441.25001
 11
5100.000114
 21
441.25001
  0
LINE
  5
324
100
AcDbEntity
  8
M79
  6
CONTINUOUS
370
25
 62
     7
100
AcDbLine
 10
5005.366184
 20
445.00001
 11
5094.634042
 21
445.00001
  0
LINE
  5
325
100
AcDbEntity
  8
M79
  6
CONTINUOUS
370
25
 62
     7
100
AcDbLine
 10
5012.500112
 20
448.75001
 11
5087.500114
 21
448.75001
  0
LINE
  5
326
100
AcDbEntity
  8
M79
  6
CONTINUOUS
370
25
 62
     7
100
AcDbLine
 10
5022.756994
 20
452.50001
 11
5077.243232
 21
452.50001
  0
LINE
  5
327
100
AcDbEntity
  8
M79
  6
CONTINUOUS
370
25
 62
     7
100
AcDbLine
 10
5047.71824
 20
418.750009
 11
5052.281986
 21
418.750009
  0
LINE
  5
328
100
AcDbEntity
  8
M79
  6
CONTINUOUS
370
25
 62
     7
100
AcDbLine
 10
5048.843066
 20
422.500009
 11
5051.157159
 21
422.500009
  0
LINE
  5
329
100
AcDbEntity
  8
M79
  6
CONTINUOUS
370
25
 62
     7
100
AcDbLine
 10
5049.967893
 20
426.25001
 11
5050.032333
 21
426.25001
  0
LINE
  5
32A
100
AcDbEntity
  8
M79
  6
CONTINUOUS
370
25
 62
     7
100
AcDbLine
 10
5085.000114
 20
413.750009
 11
5093.896169
 21
413.750009
  0
LINE
  5
32B
100
AcDbEntity
  8
M79
  6
CONTINUOUS
370
25
 62
     7
100
AcDbLine
 10
5085.000114
 20
417.500009
 11
5094.934141
 21
417.500009
  0
LINE
  5
32C
100
AcDbEntity
  8
M79
  6
CONTINUOUS
370
25
 62
     7
100
AcDbLine
 10
5085.000114
 20
421.250009
 11
5094.733974
 21
421.250009
  0
LINE
  5
32D
100
AcDbEntity
  8
M79
  6
CONTINUOUS
370
25
 62
     7
100
AcDbLine
 10
3850.98223
 20
359.395745
 11
3916.77813
 21
343.770745
  0
LINE
  5
32E
100
AcDbEntity
  8
M79
  6
CONTINUOUS
370
25
 62
     7
100
AcDbLine
 10
3850.98223
 20
390.645746
 11
3850.98223
 21
359.395745
  0
CIRCLE
  5
32F
100
AcDbEntity
  8
M79
  6
CONTINUOUS
370
25
 62
     7
100
AcDbCircle
 10
3781.167165
 20
375.020746
 40
15.625
  0
LINE
  5
330
100
AcDbEntity
  8
M79
  6
CONTINUOUS
370
25
 62
     7
100
AcDbLine
 10
3916.77813
 20
406.270746
 11
3916.77813
 21
343.770745
  0
LINE
  5
331
100
AcDbEntity
  8
M79
  6
DASHDOT
370
13
 62
     7
100
AcDbLine
 10
3738.717213
 20
375.020746
 11
3941.927817
 21
375.020746
  0
LINE
  5
332
100
AcDbEntity
  8
M79
  6
DASHDOT
370
13
 62
     7
100
AcDbLine
 10
3781.167165
 20
336.815598
 11
3781.167165
 21
420.301012
  0
LINE
  5
333
100
AcDbEntity
  8
M79
  6
CONTINUOUS
370
25
 62
     7
100
AcDbLine
 10
3850.98223
 20
390.645746
 11
3916.77813
 21
406.270746
  0
CIRCLE
  5
334
100
AcDbEntity
  8
M79
  6
CONTINUOUS
370
25
 62
     7
100
AcDbCircle
 10
3781.167165
 20
375.020746
 40
31.250001
  0
TEXT
  5
335
100
AcDbEntity
  8
M79
 62
     7
100
AcDbText
 10
3729.02067
 20
221.598392
 40
52.5
  1
Ｈ
 41
0.515873
  7
STANDARD
100
AcDbText
  0
TEXT
  5
336
100
AcDbEntity
  8
M79
 62
     7
100
AcDbText
 10
4033.498744
 20
175.079522
 40
36.250004
  1
ｐ
 41
0.603448
  7
STANDARD
100
AcDbText
  0
TEXT
  5
337
100
AcDbEntity
  8
M79
 62
     7
100
AcDbText
 10
4015.997747
 20
173.829494
 40
36.250004
  1
ａ
 41
0.603448
  7
STANDARD
100
AcDbText
  0
TEXT
  5
338
100
AcDbEntity
  8
M79
 62
     7
100
AcDbText
 10
3998.498276
 20
173.829494
 40
36.250004
  1
Ｊ
 41
0.603448
  7
STANDARD
100
AcDbText
  0
TEXT
  5
339
100
AcDbEntity
  8
M79
 62
     7
100
AcDbText
 10
3959.748247
 20
173.829518
 40
36.250004
  1
ｏ
 41
0.603448
  7
STANDARD
100
AcDbText
  0
TEXT
  5
33A
100
AcDbEntity
  8
M79
 62
     7
100
AcDbText
 10
3942.24725
 20
173.829518
 40
36.250004
  1
ｙ
 41
0.603448
  7
STANDARD
100
AcDbText
  0
TEXT
  5
33B
100
AcDbEntity
  8
M79
 62
     7
100
AcDbText
 10
3923.498465
 20
173.829518
 40
36.250004
  1
ｋ
 41
0.603448
  7
STANDARD
100
AcDbText
  0
TEXT
  5
33C
100
AcDbEntity
  8
M79
 62
     7
100
AcDbText
 10
3904.747774
 20
173.829518
 40
36.250004
  1
ｏ
 41
0.603448
  7
STANDARD
100
AcDbText
  0
TEXT
  5
33D
100
AcDbEntity
  8
M79
 62
     7
100
AcDbText
 10
3887.248303
 20
173.829518
 40
36.250004
  1
Ｔ
 41
0.603448
  7
STANDARD
100
AcDbText
  0
TEXT
  5
33E
100
AcDbEntity
  8
M79
 62
     7
100
AcDbText
 10
4053.497605
 20
173.829494
 40
36.250004
  1
ａ
 41
0.603448
  7
STANDARD
100
AcDbText
  0
TEXT
  5
33F
100
AcDbEntity
  8
M79
 62
     7
100
AcDbText
 10
4071.747165
 20
173.829494
 40
36.250004
  1
ｎ
 41
0.603448
  7
STANDARD
100
AcDbText
  0
TEXT
  5
340
100
AcDbEntity
  8
M79
 62
     7
100
AcDbText
 10
3745.270669
 20
221.598392
 40
52.5
  1
ｉ
 41
0.515873
  7
STANDARD
100
AcDbText
  0
TEXT
  5
341
100
AcDbEntity
  8
M79
 62
     7
100
AcDbText
 10
3777.770669
 20
221.598392
 40
52.5
  1
ａ
 41
0.515873
  7
STANDARD
100
AcDbText
  0
TEXT
  5
342
100
AcDbEntity
  8
M79
 62
     7
100
AcDbText
 10
3761.520669
 20
221.598392
 40
52.5
  1
ｔ
 41
0.515873
  7
STANDARD
100
AcDbText
  0
TEXT
  5
343
100
AcDbEntity
  8
M79
 62
     7
100
AcDbText
 10
3794.020672
 20
221.598392
 40
52.5
  1
ｃ
 41
0.515873
  7
STANDARD
100
AcDbText
  0
TEXT
  5
344
100
AcDbEntity
  8
M79
 62
     7
100
AcDbText
 10
3826.520671
 20
221.598392
 40
52.5
  1
ｉ
 41
0.515873
  7
STANDARD
100
AcDbText
  0
TEXT
  5
345
100
AcDbEntity
  8
M79
 62
     7
100
AcDbText
 10
3810.270668
 20
221.598392
 40
52.5
  1
ｈ
 41
0.515873
  7
STANDARD
100
AcDbText
  0
TEXT
  5
346
100
AcDbEntity
  8
M79
 62
     7
100
AcDbText
 10
3855.270668
 20
221.598392
 40
52.5
  1
Ｇ
 41
0.515873
  7
STANDARD
100
AcDbText
  0
TEXT
  5
347
100
AcDbEntity
  8
M79
 62
     7
100
AcDbText
 10
3871.520671
 20
221.598392
 40
52.5
  1
ｌ
 41
0.515873
  7
STANDARD
100
AcDbText
  0
TEXT
  5
348
100
AcDbEntity
  8
M79
 62
     7
100
AcDbText
 10
3887.770674
 20
221.598392
 40
52.5
  1
ｏ
 41
0.515873
  7
STANDARD
100
AcDbText
  0
TEXT
  5
349
100
AcDbEntity
  8
M79
 62
     7
100
AcDbText
 10
3904.020676
 20
221.598392
 40
52.5
  1
ｂ
 41
0.515873
  7
STANDARD
100
AcDbText
  0
TEXT
  5
34A
100
AcDbEntity
  8
M79
 62
     7
100
AcDbText
 10
3920.270679
 20
221.598392
 40
52.5
  1
ａ
 41
0.515873
  7
STANDARD
100
AcDbText
  0
TEXT
  5
34B
100
AcDbEntity
  8
M79
 62
     7
100
AcDbText
 10
3936.520682
 20
221.598392
 40
52.5
  1
ｌ
 41
0.515873
  7
STANDARD
100
AcDbText
  0
TEXT
  5
34C
100
AcDbEntity
  8
M79
 62
     7
100
AcDbText
 10
3965.270673
 20
221.598392
 40
52.5
  1
Ｌ
 41
0.515873
  7
STANDARD
100
AcDbText
  0
TEXT
  5
34D
100
AcDbEntity
  8
M79
 62
     7
100
AcDbText
 10
3981.520664
 20
221.598392
 40
52.5
  1
ｉ
 41
0.515873
  7
STANDARD
100
AcDbText
  0
TEXT
  5
34E
100
AcDbEntity
  8
M79
 62
     7
100
AcDbText
 10
3997.770678
 20
221.598392
 40
52.5
  1
ｆ
 41
0.515873
  7
STANDARD
100
AcDbText
  0
TEXT
  5
34F
100
AcDbEntity
  8
M79
 62
     7
100
AcDbText
 10
4014.020669
 20
221.598392
 40
52.5
  1
ｅ
 41
0.515873
  7
STANDARD
100
AcDbText
  0
TEXT
  5
350
100
AcDbEntity
  8
M79
 62
     7
100
AcDbText
 10
4042.77066
 20
221.598392
 40
52.5
  1
Ｓ
 41
0.515873
  7
STANDARD
100
AcDbText
  0
TEXT
  5
351
100
AcDbEntity
  8
M79
 62
     7
100
AcDbText
 10
4059.020651
 20
221.598392
 40
52.5
  1
ｏ
 41
0.515873
  7
STANDARD
100
AcDbText
  0
TEXT
  5
352
100
AcDbEntity
  8
M79
 62
     7
100
AcDbText
 10
4075.270666
 20
221.598392
 40
52.5
  1
ｌ
 41
0.515873
  7
STANDARD
100
AcDbText
  0
TEXT
  5
353
100
AcDbEntity
  8
M79
 62
     7
100
AcDbText
 10
4091.520657
 20
221.598392
 40
52.5
  1
ｕ
 41
0.515873
  7
STANDARD
100
AcDbText
  0
TEXT
  5
354
100
AcDbEntity
  8
M79
 62
     7
100
AcDbText
 10
4107.770671
 20
221.598392
 40
52.5
  1
ｔ
 41
0.515873
  7
STANDARD
100
AcDbText
  0
TEXT
  5
355
100
AcDbEntity
  8
M79
 62
     7
100
AcDbText
 10
4124.020662
 20
221.598392
 40
52.5
  1
ｉ
 41
0.515873
  7
STANDARD
100
AcDbText
  0
TEXT
  5
356
100
AcDbEntity
  8
M79
 62
     7
100
AcDbText
 10
4140.270653
 20
221.598392
 40
52.5
  1
ｏ
 41
0.515873
  7
STANDARD
100
AcDbText
  0
TEXT
  5
357
100
AcDbEntity
  8
M79
 62
     7
100
AcDbText
 10
4156.520644
 20
221.598392
 40
52.5
  1
ｎ
 41
0.515873
  7
STANDARD
100
AcDbText
  0
TEXT
  5
358
100
AcDbEntity
  8
M79
 62
     7
100
AcDbText
 10
4172.770635
 20
221.598392
 40
52.5
  1
ｓ
 41
0.515873
  7
STANDARD
100
AcDbText
  0
TEXT
  5
359
100
AcDbEntity
  8
M79
 62
     7
100
AcDbText
 10
4189.020626
 20
221.598392
 40
52.5
  1
，
 41
0.515873
  7
STANDARD
100
AcDbText
  0
TEXT
  5
35A
100
AcDbEntity
  8
M79
 62
     7
100
AcDbText
 10
4201.520626
 20
221.598392
 40
52.5
  1
Ｉ
 41
0.515873
  7
STANDARD
100
AcDbText
  0
TEXT
  5
35B
100
AcDbEntity
  8
M79
 62
     7
100
AcDbText
 10
4217.770617
 20
221.598392
 40
52.5
  1
ｎ
 41
0.515873
  7
STANDARD
100
AcDbText
  0
TEXT
  5
35C
100
AcDbEntity
  8
M79
 62
     7
100
AcDbText
 10
4250.270598
 20
221.598392
 40
52.5
  1
．
 41
0.515873
  7
STANDARD
100
AcDbText
  0
TEXT
  5
35D
100
AcDbEntity
  8
M79
 62
     7
100
AcDbText
 10
4234.020607
 20
221.598392
 40
52.5
  1
ｃ
 41
0.515873
  7
STANDARD
100
AcDbText
  0
ENDSEC
  0
SECTION
  2
OBJECTS
  0
DICTIONARY
  5
C
100
AcDbDictionary
  3
ACAD_GROUP
350
D
  3
ACAD_MLINESTYLE
350
E
  0
DICTIONARY
  5
D
102
{ACAD_REACTORS
330
C
102
}
100
AcDbDictionary
  0
DICTIONARY
  5
E
102
{ACAD_REACTORS
330
C
102
}
100
AcDbDictionary
  3
STANDARD
350
13
  0
DICTIONARY
  5
4D
330
4C
100
AcDbDictionary
280
     1
281
     1
  3
ACAD_DIMASSOC
360
4E
  0
DIMASSOC
  5
4E
102
{ACAD_REACTORS
330
4D
102
}
330
4D
100
AcDbDimAssoc
330
4C
 90
        1
 70
     0
 71
     0
  1
AcDbOsnapPointRef
 72
     10
331
4F
 73
     2
 91
        0
 40
0.510808
 10
1627.899779
 20
1242.477159
 30
0.000000
 75
     0
  0
DICTIONARY
  5
52
330
51
100
AcDbDictionary
280
     1
281
     1
  3
ACAD_DIMASSOC
360
53
  0
DIMASSOC
  5
53
102
{ACAD_REACTORS
330
52
102
}
330
52
100
AcDbDimAssoc
330
51
 90
        1
 70
     0
 71
     0
  1
AcDbOsnapPointRef
 72
     10
331
54
 73
     2
 91
        0
 40
0.535417
 10
1623.462141
 20
935.201952
 30
0.000000
 75
     0
  0
DICTIONARY
  5
57
330
56
100
AcDbDictionary
280
     1
281
     1
  3
ACAD_DIMASSOC
360
58
  0
DIMASSOC
  5
58
102
{ACAD_REACTORS
330
57
102
}
330
57
100
AcDbDimAssoc
330
56
 90
        1
 70
     0
 71
     0
  1
AcDbOsnapPointRef
 72
     10
331
59
 73
     2
 91
        0
 40
0.588944
 10
3605.022511
 20
2045.512436
 30
0.000000
 75
     0
  0
DICTIONARY
  5
5C
330
5B
100
AcDbDictionary
280
     1
281
     1
  3
ACAD_DIMASSOC
360
5D
  0
DIMASSOC
  5
5D
102
{ACAD_REACTORS
330
5C
102
}
330
5C
100
AcDbDimAssoc
330
5B
 90
        1
 70
     0
 71
     0
  1
AcDbOsnapPointRef
 72
     10
331
5E
 73
     2
 91
        0
 40
0.470633
 10
3792.522515
 20
2243.223622
 30
0.000000
 75
     0
  0
DICTIONARY
  5
61
330
60
100
AcDbDictionary
280
     1
281
     1
  3
ACAD_DIMASSOC
360
62
  0
DIMASSOC
  5
62
102
{ACAD_REACTORS
330
61
102
}
330
61
100
AcDbDimAssoc
330
60
 90
        1
 70
     0
 71
     0
  1
AcDbOsnapPointRef
 72
     10
331
63
 73
     2
 91
        0
 40
0.486993
 10
2079.420899
 20
1242.492704
 30
0.000000
 75
     0
  0
MLINESTYLE
  5
13
102
{ACAD_REACTORS
330
E
102
}
100
AcDbMlineStyle
  2
STANDARD
 70
     0
  3

 62
     0
 51
90.0
 52
90.0
 71
     2
 49
0.5
 62
   256
  6
BYLAYER
 49
-0.5
 62
   256
  6
BYLAYER
  0
ENDSEC
  0
EOF
